Oops, an error
Loading. Please wait.

The New Version Of You tab

version 1
version 1

Whole song

1,180 views 1 this week
no commentswrite comment
1 2 3 4 5
2 more votes to show rating
add to favorites
×
Save as Personal and add changes to this tab that will be seen only by you. Learn more ›
×
You can save this tab as Personal to edit and correct it or add notes. All changes will be seen only by you. Learn more »
launch autoscroll
font size
0
reset
how to read this tab
guitar tuner
edit
Autoscroll
slow
fast
+/-
esc
set tempo
stop
Author
Difficulty
-------------------------------------------------------------------------------
                             SONG NAME - Band Name
-------------------------------------------------------------------------------
Tabbed by: Madien_Rule
Email: daniel_keay_93@msn.com

Tuning: Standard

Intro
e|----------------------------------|
B|----------------------------------|
G|-------------------10-9-----------|
D|-----5-5----7------10-9---10-9----|   X4
A|-----5-5----7-------8-7---10-9----|
E|-----0-3----5--------------8-7----|

Verse
e|---x-5-x-5-x-5-x-5--x-5-x-5-x-5-x-5--x-3-x-3-x-3-x-3--x-3-x-3-x-3-x-3--|
B|---x-5-x-5-x-5-x-5--x-7-x-7-x-7-x-7--x-3-x-3-x-3-x-3--x-5-x-5-x-5-x-5--|
G|---x-6-x-6-x-6-x-6--x-7-x-7-x-7-x-7--x-4-x-4-x-4-x-4--x-5-x-5-x-5-x-5--|
D|--------------------x-7-x-7-x-7-x-7-------------------x-5-x-5-x-5-x-5--|
A|-----------------------------------------------------------------------|
E|-----------------------------------------------------------------------|

But I'm not toooooo sure about the last chord in the verse but the rest is right.


Pre Chorus
"You say you're becoming a better person, one that isn't so lame"
e|--------------------------------------------------------------------|
B|--------------------------------------------------------------------|
G|--------------------------------------------------------------------|
D|-9-9-9-9-9-9-9-9--5-5-5-5-5-5-5-5--7-7-7-7-7-7-7-7-7-7-7-7-7-7-7-7--|
A|-9-9-9-9-9-9-9-9--5-5-5-5-5-5-5-5--7-7-7-7-7-7-7-7-7-7-7-7-7-7-7-7--|
E|-7-7-7-7-7-7-7-7--3-3-3-3-3-3-3-3--5-5-5-5-5-5-5-5-5-5-5-5-5-5-5-5--|

"You say you're becoming a better person, but I still feel the same"
e|--------------------------------------------------------------------|
B|--------------------------------------------------------------------|
G|--------------------------------------------------------------------|
D|-9-9-9-9-9-9-9-9--5-5-5-5-5-5-5-5--2-2-2-2-2-2-2-2-2-2-2-2-2-2-2-2--|
A|-9-9-9-9-9-9-9-9--5-5-5-5-5-5-5-5--2-2-2-2-2-2-2-2-2-2-2-2-2-2-2-2--|
E|-7-7-7-7-7-7-7-7--3-3-3-3-3-3-3-3--0-0-0-0-0-0-0-0-0-0-0-0-0-0-0-0--|

Chorus
e|-5-5-5-5------------| The chorus isn't ska off beats, the chords are
B|-5-5-5-5--7-7--9-9--| played on the beats
G|-6-6-6-6--7-7--9-9--|
D|----------7-7--9-9--|
A|--------------------|
E|--------------------|

End of the chorus.
"If theres one thing I'd like to do its kill the, new version of you"
e|--------------------------------------------------|
B|--------------------------------------------------|
G|--------------------------------------------------|
D|--7-7-7-7-7-7-7-7--4-4-4-4-4-4-4-4---3-3--3-3--2--|
A|--7-7-7-7-7-7-7-7--4-4-4-4-4-4-4-4---3-3--3-3--2--|
E|--5-5-5-5-5-5-5-5--2-2-2-2-2-2-2-2---1-1--1-1--0--|

Then Verse then Chorus which are jsut the same then the bridge it goes back to the intro.

2nd Bridge bit
"Who are you? I don't know now, you got me wondering, I wonder how you got to be so 
now"
e|-------------------------------------|  You just play that throughout the
B|-------------------------------------|  vocals plamuted then it goes back
G|-------------------------------------|  to the pre-chorus.
D|--4-4-4-4--5-5-5-5--7-7-7-7-7-7-7-7--|
A|--4-4-4-4--5-5-5-5--7-7-7-7-7-7-7-7--|
E|--2-2-2-2--3-3-3-3--5-5-5-5-5-5-5-5--|

Then after the bridge theres 1 normal chorus I thinmk then it changes to power chords 
distortion which is just.

e|-------------------------------------|   And you play that for a while
B|-------------------------------------|   then its the normal chorus end
G|-------------------7-7-7-7--9-9-9-9--|   then the intro again to finish.
D|--7-7-7-7-7-7-7-7--7-7-7-7--9-9-9-9--|
A|--7-7-7-7-7-7-7-7--5-5-5-5--7-7-7-7--|
E|--5-5-5-5-5-5-5-5--------------------|

And thats it =) its an aaaace song so have fun!


| /  slide up
| \  slide down
| h  hammer-on
| p  pull-off
| ~  vibrato
| +  harmonic
| x  Mute note
==========================================================================

            
            
Suggest correction
Creating personal tab
Creating personal tab
You can edit any tab online and save it as your Personal.

You can edit, replace or remove any tab part or add personal notes – all changes will be seen only by you.

Personal tabs can be accessed anytime from any device, even offline.
Learn more »
Give kudos to tab author, rate the tab!
1 2 3 4 5
comments
print report bad tab
guest
You may want to rate the tab now too:
select rating
Wanna post a correction for this tab? Suggest correction