Oops, an error
Loading. Please wait.

Your Girlfriend Sucks tab

177 views 1 this week
no commentswrite comment
1 2 3 4 5
2 more votes to show rating
add to favorites
×
Save as Personal and add changes to this tab that will be seen only by you. Learn more ›
×
You can save this tab as Personal to edit and correct it or add notes. All changes will be seen only by you. Learn more »
launch autoscroll
font size
0
reset
how to read this tab
guitar tuner
edit
Autoscroll
slow
fast
+/-
esc
set tempo
stop
Author
-------------------------------------------------------------------------------
                        Your Girlfriend Sucks- Reel Big Fish    
-------------------------------------------------------------------------------
Tabbed by: Sovaso

Tuning: Standard
Guitar Preformed by: Aaron Barrett
Played on: Gordon Smith Graduate
First appeared on: Candy Coated Fury (2012)

Fun song by Reel Big Fish remember to keep a ska feel to it and it'll be good!


4/4 Time 
Tempo Q= 186
Intro- Distortion:                         Pm-------|
e|---------------------------------------------------|
B|-9-9---------7-7-7---------9-9--------7------------|
G|-9-9--6-6-6--7-7-7--8-8-8--9-9--6-6-6-7--8-8-8-8-8-|
D|-9-9--7-7-7--7-7-7--9-9-9--9-9--7-7-7-7--9-9-9-9-9-| x2
A|-7-7--7-7-7--5-5-5--9-9-9--7-7--7-7-7-5--9-9-9-9-9-|
E|------5-5-5---------7-7-7-------5-5-5----7-7-7-7-7-|

Third time, play this
                                             Pm----------|             
e|-------------------------------------------------------------7-7-7-7-7-7-7-|
B|-------------------------------------------------------------7-7-7-7-7-7-7-|
G|-9-9---------7-7-7---------9-9--------7----------------------8-8-8-8-8-8-8-|
D|-9-9--7-7-7--7-7-7--9-9-9--9-9--7-7-7-7--9-9-9-9-9-9-9-9-9-9-9-9-9-9-9-9-9-|
A|-7-7--7-7-7--5-5-5--9-9-9--7-7--7-7-7-5--9-9-9-9-9-9-9-9-9-9-9-9-9-9-9-9-9-|
E|------5-5-5---------7-7-7-------5-5-5----7-7-7-7-7-7-7-7-7-7-7-7-7-7-7-7-7-|

Verse 1 -Clean
Counting:
   1 +  +  +  +  +  +  +  +  1 +  +  +  +  +  +  +  +   (Keep a similar upbeat pattern in verses and chorus)
e|-7-7--7--7--7--7--7--7--7--5-5--5--5--5--7--7--7--7----|
B|-9-9--9--9--9--7--7--7--7--5-5--5--5--5--7--7--7--7----|
G|-9-9--9--9--9--8--8--8--8--6-6--6--6--6--8--8--8--8----|
D|-9-9-----------------------7-7-------------------------| x4
A|-7-7-----------------------7-7-------------------------|
E|---------------------------5-5-------------------------|
 "Are you really gonna let that girl come between you and me?"

Pre Chorus- Clean:                       Pm---------|
e|-7-7--7--7--7--7--7--7--7--5-5--5--5--5----------------|
B|-9-9--9--9--9--7--7--7--7--5-5--5--5--5----------------|
G|-9-9--9--9--9--8--8--8--8--6-6--6--6--6----------------|
D|-9-9-----------------------7-7-----------9-9-9-9-9-9---| 
A|-7-7-----------------------7-7-----------9-9-9-9-9-9---|
E|---------------------------5-5-----------7-7-7-7-7-7---|
  "Woah...      Woah...       Woah...                 Woah"

Chorus- Clean:
e|-7-7--7--7--7--7--7--7--7--5-5--5--5--5--5--5--5--5----|
B|-9-9--9--9--9--9--9--9--9--5-5--5--5--5--5--5--5--5----|
G|-9-9--9--9--9--9--9--9--9--6-6--6--6--6--6--6--6--6----|
D|-9-9-----------------------7-7-------------------------|
A|-7-7-----------------------7-7-------------------------|
E|---------------------------5-5-------------------------|
"Nobody likes your girlfriend, she's a beast from hell, man"

e|-7-7--7--7--7--7--7--7--7--7-7--7--7--7--7--7--7--7----|
B|-9-9--9--9--9--9--9--9--9--7-7--7--7--7--7--7--7--7----|
G|-9-9--9--9--9--9--9--9--9--8-8--8--8--8--8--8--8--8----|
D|-9-9-----------------------9-9--9--9--9--9--9--9--9----|
A|-7-7-----------------------9-9--9--9--9--9--9--9--9----|
E|---------------------------7-7--7--7--7--7--7--7--7----|
"Everybody hates your girlfriend, yes it's true"

Repeat the Chorus section twice!

Verse 2- Clean:
e|-7-7--7--7--7--7--7--7--7--5-5--5--5--5--7--7--7--7----|
B|-9-9--9--9--9--7--7--7--7--5-5--5--5--5--7--7--7--7----|
G|-9-9--9--9--9--8--8--8--8--6-6--6--6--6--8--8--8--8----|
D|-9-9-----------------------7-7-------------------------| x4
A|-7-7-----------------------7-7-------------------------|
E|---------------------------5-5-------------------------|
"Do you remember that time we watched Saving Silverman?"

Pre Chorus- Clean:                        Pm---------|
e|-7-7--7--7--7--7--7--7--7--5-5--5--5--5----------------|
B|-9-9--9--9--9--7--7--7--7--5-5--5--5--5----------------|
G|-9-9--9--9--9--8--8--8--8--6-6--6--6--6----------------|
D|-9-9-----------------------7-7-----------9-9-9-9-9-9---| 
A|-7-7-----------------------7-7-----------9-9-9-9-9-9---|
E|---------------------------5-5-----------7-7-7-7-7-7---|
  "Woah...      Woah...       Woah...                 Woah"

Chorus- Clean:
e|-7-7--7--7--7--7--7--7--7--5-5--5--5--5--5--5--5--5----|
B|-9-9--9--9--9--9--9--9--9--5-5--5--5--5--5--5--5--5----|
G|-9-9--9--9--9--9--9--9--9--6-6--6--6--6--6--6--6--6----|
D|-9-9-----------------------7-7-------------------------|
A|-7-7-----------------------7-7-------------------------|
E|---------------------------5-5-------------------------|
"Nobody likes your girlfriend, she's a beast from hell, man"

e|-7-7--7--7--7--7--7--7--7--7-7--7--7--7--7--7--7--7----|
B|-9-9--9--9--9--9--9--9--9--7-7--7--7--7--7--7--7--7----|
G|-9-9--9--9--9--9--9--9--9--8-8--8--8--8--8--8--8--8----|
D|-9-9-----------------------9-9--9--9--9--9--9--9--9----|
A|-7-7-----------------------9-9--9--9--9--9--9--9--9----|
E|---------------------------7-7--7--7--7--7--7--7--7----|
"Everybody hates your girlfriend, yes it's true"

Repeat the Chorus section twice!

Bridge- Distortion:
e|-4--4--4---4-4-------------------------------------------------------------|
B|-5--5--5---5-5-----------------5--5--5--5-5--------------------------------|
G|-6--6--6---6-6-6-6--6--6-6--6--6--6--6--6-6-6--6-6--6----------------------|
D|-6--6--6---6-6-7-7--7--7-7--7--6--6--6--6-6-7--7-7--7--9-9-9-9-9-----------|
A|-4--4--4---4-4-7-7--7--7-7--7--4--4--4--4-4-7--7-7--7--9-9-9-9-9-----------|
E|---------------5-5--5--5-5--5---------------5--5-5--5--7-7-7-7-7-----------|
"And She doesn't like us, obviously... No such luck..              Your Girlfriend sucks!"


Interlude- Distortion:
e|---------------------------------------------------|
B|-9-9---------7-7-7---------9-9--------7------------|
G|-9-9--6-6-6--7-7-7--8-8-8--9-9--6-6-6-7--8-8-8-8-8-|
D|-9-9--7-7-7--7-7-7--9-9-9--9-9--7-7-7-7--9-9-9-9-9-| x2
A|-7-7--7-7-7--5-5-5--9-9-9--7-7--7-7-7-5--9-9-9-9-9-|
E|------5-5-5---------7-7-7-------5-5-5----7-7-7-7-7-|
 "Sucks!" 
Third time, play this
                                             Pm----------|             
e|-------------------------------------------------------------7-7-7-7-7-7-7-|
B|-------------------------------------------------------------7-7-7-7-7-7-7-|
G|-9-9---------7-7-7---------9-9--------7----------------------8-8-8-8-8-8-8-|
D|-9-9--7-7-7--7-7-7--9-9-9--9-9--7-7-7-7--9-9-9-9-9-9-9-9-9-9-9-9-9-9-9-9-9-|
A|-7-7--7-7-7--5-5-5--9-9-9--7-7--7-7-7-5--9-9-9-9-9-9-9-9-9-9-9-9-9-9-9-9-9-|
E|------5-5-5---------7-7-7-------5-5-5----7-7-7-7-7-7-7-7-7-7-7-7-7-7-7-7-7-|

Half Time Break- Clean:
e|x-9---x--9--x-9--x-9---x--7--x--7--x--8-x--8---|
B|x-10--x--10-x-10-x-10--x--9--x--9--x--8-x--8---|
G|x-11--x--11-x-11-x-11--x--9--x--9--x--9-x--9---|
D|x-----x-----x----x-----x-----x-----x----x------| x3
A|-----------------------------------------------|
E|-----------------------------------------------|
"And doesn't like us, obviously, we haven't heard from you in weeks and weeks."

Half time "Girlfriend Sucks"- Clean:     Pm---------------|
e|x-4--x--4--x--4--x--4--x--5-x--5-x-5-x-5-------------------7------------|
B|x-4--x--4--x--4--x--4--x--5-x--5-x-5-x-5-------------------7------------|
G|x-4--x--4--x--4--x--4--x--6-x--6-x-6-x-6-------------------8------------|
D|-------------------------------------------9-9-9-9-9-9-9-9-9------------|
A|-------------------------------------------9-9-9-9-9-9-9-9-9------------|
E|-------------------------------------------7-7-7-7-7-7-7-7-7------------|

Chorus- Clean
e|-7-7--7--7--7--7--7--7--7--5-5--5--5--5--5--5--5--5----|
B|-9-9--9--9--9--9--9--9--9--5-5--5--5--5--5--5--5--5----|
G|-9-9--9--9--9--9--9--9--9--6-6--6--6--6--6--6--6--6----|
D|-9-9-----------------------7-7-------------------------|
A|-7-7-----------------------7-7-------------------------|
E|---------------------------5-5-------------------------|
"Nobody likes your girlfriend, she's a beast from hell, man"

e|-7-7--7--7--7--7--7--7--7--7-7--7--7--7--7--7--7--7----|
B|-9-9--9--9--9--9--9--9--9--7-7--7--7--7--7--7--7--7----|
G|-9-9--9--9--9--9--9--9--9--8-8--8--8--8--8--8--8--8----|
D|-9-9-----------------------9-9--9--9--9--9--9--9--9----|
A|-7-7-----------------------9-9--9--9--9--9--9--9--9----|
E|---------------------------7-7--7--7--7--7--7--7--7----|
"Everybody hates your girlfriend, yes it's true"

Repeat the Chorus section twice!

Bridge- Distortion:
e|-4--4--4---4-4-------------------------------------------------------------|
B|-5--5--5---5-5-----------------5--5--5--5-5--------------------------------|
G|-6--6--6---6-6-6-6--6--6-6--6--6--6--6--6-6-6--6-6--6----------------------|
D|-6--6--6---6-6-7-7--7--7-7--7--6--6--6--6-6-7--7-7--7--9-9-9-9-9-----------|
A|-4--4--4---4-4-7-7--7--7-7--7--4--4--4--4-4-7--7-7--7--9-9-9-9-9-----------|
E|---------------5-5--5--5-5--5---------------5--5-5--5--7-7-7-7-7-----------|
"And She doesn't like us, obviously... No such luck..              Your Girlfriend sucks!"


Outro- Distortion
e|---------------------------------------------------|
B|-9-9---------7-7-7---------9-9--------7------------|
G|-9-9--6-6-6--7-7-7--8-8-8--9-9--6-6-6-7--8-8-8-8-8-|
D|-9-9--7-7-7--7-7-7--9-9-9--9-9--7-7-7-7--9-9-9-9-9-| x2
A|-7-7--7-7-7--5-5-5--9-9-9--7-7--7-7-7-5--9-9-9-9-9-|
E|------5-5-5---------7-7-7-------5-5-5----7-7-7-7-7-|
 "Sucks!" 
Third time, play this
                                             Pm----------|             
e|-------------------------------------------------------------7-7-7-7-7-7-7-|
B|-------------------------------------------------------------7-7-7-7-7-7-7-|
G|-9-9---------7-7-7---------9-9--------7----------------------8-8-8-8-8-8-8-|
D|-9-9--7-7-7--7-7-7--9-9-9--9-9--7-7-7-7--9-9-9-9-9-9-9-9-9-9-9-9-9-9-9-9-9-|
A|-7-7--7-7-7--5-5-5--9-9-9--7-7--7-7-7-5--9-9-9-9-9-9-9-9-9-9-9-9-9-9-9-9-9-|
E|------5-5-5---------7-7-7-------5-5-5----7-7-7-7-7-7-7-7-7-7-7-7-7-7-7-7-7-|
   "Your Girlfriend Sucks!"    "Girlfrieeeeennnndddnnndddddddddddddd........"

Finale- Distortion
e|-7\-------|
B|-9\-------|
G|-9\-------|
D|-9\-------|
A|-7\-------|
E|-0--------|
   "SUCKS!"

Thanks! Rate and Comment please! These tabs take plenty of time and effort!

************************************

| Pm  Palm mute
| /   slide up
| \   slide down
| h   hammer-on
| p   pull-off
| ~   vibrato
| +   harmonic
| x   Mute note
| b   Bend
| pb  Pre-bend
| br  Bend release
| pbr Pre-bend release
| brb Bend release bend

************************************
Suggest correction
Creating personal tab
Creating personal tab
You can edit any tab online and save it as your Personal.

You can edit, replace or remove any tab part or add personal notes – all changes will be seen only by you.

Personal tabs can be accessed anytime from any device, even offline.
Learn more »
Give kudos to tab author, rate the tab!
1 2 3 4 5
comments
print report bad tab
guest
You may want to rate the tab now too:
select rating
Wanna post a correction for this tab? Suggest correction