Oops, an error
Loading. Please wait.

Carcelera Tab

version 1
version 1

Intro

Interactive

21,191 views 90 this week
2 commentsread comments
1 2 3 4 5
x 4
add to favorites
launch autoscroll
font size
0
reset
how to read this tab
guitar tuner
×
Best way to learn
"Carcelera"
Autoscroll
slow
fast
+/-
esc
set tempo
stop
Author
Difficulty
  follow
intermediate
-------------------------------------------------------------------------------
                             Reflejo Andaluz - Carcelera
-------------------------------------------------------------------------------
Tabbed by: Pils123

This the song played in csgo, t-spawn on de_inferno.

It's far from finished. This only the first part. Probably has some mistakes.

Credits to this guy because his video helped a lot:
http://www.youtube.com/watch?v=66fjjc9-9K4

Capo on first fret

e|--------5678-----8-----5----|
B|-------6---------11---------|
G|------5----------9-----5----|
D|-----7-----------8-----7----| x2
A|----8------------10----8----|
E|--0-------------8------0----|

e|---------------------------------|
B|---------------------------------|
G|---9----------7--------9/14-14---|
D|--10----------8-------10---------|
A|--10----------8------10----------|
E|--8--------6-------8---------0---|


e|---------------------5-----5-----|
B|-------8h10p8-------6-6----6-----|
G|-----9-------------5---5---5-----|
D|---8--------------7-----7--7-----|
A|--10-------------8---------8-----|
E|--8-------------0----------0-----|

from here on I couldn't really find it decently so full of mistakes:

e|--888-8--8-8-8-------8----------------------------------------------------------|
B|------10-------10--10-----------------------------------------------------------|
G|------8-------------------------------------------------------------------------|
D|------10---------10-------------------------------------------------------------|
A|------8-------------------------------------------------------------------------|
E|--------------------------------------------------------------------------------|

e|-------0-3-5-6-5-3-0-------|
B|-0-3-5---------------5-3-0-|
G|---------------------------| ... (don't know)
D|---------------------------|
A|---------------------------|
E|---------------------------|

e|-----5-5-------|
B|---6----6------|
G|--5------5-----|
D|-5--------7----| ...
A|-----------8---|
E|------------0--|


************************************

| /   slide up
| \   slide down
| h   hammer-on
| p   pull-off
| ~   vibrato
| +   harmonic
| x   Mute note
| b   Bend
| pb  Pre-bend
| br  Bend release
| pbr Pre-bend release
| brb Bend release bend

************************************
Suggest correction
comments
print report bad tab
2 comments total.
0 reply
Deagle 10 Sep 20, 2014 08:04 AM

The second Chords at the beginning is wrong

e|--------5678-----8-----5----|
B|-------6---------8-----6----|
G|------5----------9-----5----|
D|-----7-----------------7----| x2 that 8-9-8-8 one is actually
A|----8------------------8----|
E|--0-------------8------0----|

e|--------5678-----8-----5----|
B|-------6---------11---------|
G|------5----------9-----5----|
D|-----7-----------8-----7----| x2
A|----8------------10-----8----|
E|--0-------------8------0----|

Also the second part fixed

e|----------------------------------|
B|---------------------------------|
G|---9----------7--------9/14-14---|
D|--10----------8-------10----------|
A|--10----------8------10------------|
E|--8--------6-------8----------0---|

Now the third part fixed

e|-------------------5-----5-----|
B|-----8h10p8-------6-6----6-----|
G|----9------------5---5---5-----|
D|---8------------7-----7--7-----|
A|--10-----------8---------8-----|
E|--8-----------0----------0-----|

0 reply
jimvshady 10 Jun 06, 2015 04:13 AM

Here is an alternate version.
I changed the positions in the beginning and the second part sounds a bit better now with some higher tones. Maybe they're not the right chords but it sounds about right. A number between "()" can optionally be played if you like to.

e|--------5678-----6-----5----|
B|-------6---------5-----3----|
G|------5----------3-----5----|
D|-----7-----------5-----2----| x2
A|----8------------3-----2----|
E|--0--------------------0----|

e|--3--------------------------------|
B|-(0)-------3----------5/10-10------|
G|--3--------3----------5------------|
D|--2--------3----------5------------|
A|--3--------0---------3-------------|
E|-----------------------------------|

e|-------------------5----------|
B|-----8h10p8-------6-6---------|
G|----9------------5---5--------|
D|---8------------7-----7-------|
A|--10-----------8-------8------|
E|--8-----------0---------0-----|

guest
You may want to rate the tab now too:
select rating
Wanna post a correction for this tab? Suggest correction