Oops, an error
Loading. Please wait.

Deadly Bass Tab

version 1
version 1

Whole song

Interactive

1,059 views 1 this week
no commentswrite comment
1 2 3 4 5
please rate
add to favorites
launch autoscroll
font size
0
reset
guitar tuner
Tab Pro tools
  • play this tab
  • loop segment
  • change instrument
  • show fretboard
  • metronome
×
Best way to learn
"Deadly"
Autoscroll
slow
fast
+/-
esc
set tempo
stop
Contributor
Difficulty
intermediate
THIS IS NOT MY WORK.  THIS WAS DONE BY SMALLMAN MARIO.

Tabber: Mario Gautreau aka smallman mario gautrml@nb.sympatico.ca

Here's an awesome song by an awesome band, we played this song at a school talent show. The bass solo is
awesome and is actually not that difficult. The timing for the drums is insane. Please listen to the song for the
timing, because there are lots of place where the bass doesn't play, if you have an upright bass, which i don't, it
would be great for the solo. Here goes...please send comments or questions at e-mail above.

h - hit
p - pull off
/ - slide
* - let ring
> - strum chord

Riff 1 part 1 part 2
G|---------------------------|-----------------------------------------------------| then play part 1
D|---------------------------|-----------------------------------------------------| then play part 2
A|---------------------------|-----------------------------------------------------|
E|--2-2-----2-2--2-2-2-3*-2--|-0-0-0-5-0-3-0-5-0-3-0-5-0-3-0-5-0-3-0-5-0-3-0-5-0-3-|

Riff 2 x4
G|------|
D|------|
A|------|
E|-0-00-|

Riff 3 x4
G|--------------------------| |--------------|
D|--------------------------| |--------------|
A|----------202020203030303-| or |-------2>-3>--|
E|-0-0-0-0------------------| |-0>-----------|

Riff 2 x4
long pause - where guitar rings then
Riff 3 x4

Riff 4
G|-----------------------------------------|
D|---------7-9-------7-9--------7-9-10-15*-|
A|-7*-8-10------8-10------8-10-------------|
E|-----------------------------------------|

Riff 1 part 1 x1

Riff 5 - SOLO x8                   x4    weird timing x1                x4
G|-------------------|---------------------|--------4--5/6-7--|-----------------|
D|-9-7-6-6h7/5-2-3-4-|---------------------|---4--------------|-9-7-6-7/5-2-3-4-|
A|-------------------|---------------------|-2----------------|-----------------|
E|-------------------|---7-5-4-4h5/3-0-1-2-|------------------|-----------------|

SOLO
G|-----------------------------------------------------------------------------|-------------------|
D|-9-8-7-8-9-8-7-8-9-8-9-10-11-10-11-12-13-12-13-14-15-14-15-16-17-17-17-17-17-|-9*--14*--16*--17--|
A|-----------------------------------------------------------------------------|-------------------|
E|-----------------------------------------------------------------------------|-------------------|

Riff 6                                 x1                             x2 x1
G|---------------------------------------|------------------------------|----------------------------------------|
D|----/21-21-----------------------------|------------------------------|----------------------------------------|
A|-------------------3-2--------2-3-3>---|------2-3-----3-2------2-3-3>-|------2-3------3-2------2-3-------------|
E|-0-0---------0-0---------0-0-----------|-0-0------0-0-----0-0---------|-0-0------0-0-------0-0------0-5-0-3-0*-|

Riff 7 x3 (only bass and drums)
G|-------------|
D|-------------|
A|-------------|
E|--0-5-0-3-0*-|

Riff 8 x4
G|-------------------------------|
D|-------------------------------|
A|-------------------------------|
E|--0-5-0-3-0---0-0-0*----0-0-0*-|

Riff 9 give or take x1 x1 x2 x1
G|-----------------------------------------------------------------|-----------------------------|--------------|
D|-----------------------------------------------------------------|-----------------------------|--------------|
A|-----------------------------------------------------------------|-----------------------------|--------------|
E|-0-5-0-3-0-5-0-3-0-5-0-3-0-5-0-3-0-5-0-3-0-5-0-3-0-5-0-3-0-5-0-3-|--0--5--0--3--0---0-0---0-0--|--00000-00000-|

And that's the way i play The Dealy Rythm. There are quite a bit of variations, but it sure is a nice song to pump
up and to jump around to. It's so much fun to play. Good luck and keep creativity alive.
comments
We did not receive enough feedback on this tab! Please rate:
print report bad tab
1 2 3 4 5
I want to post or [tab]
guest
You may want to rate the tab now too:
select rating
Please do not post tabs as comments. Select "correction" instead!