Oops, an error
Loading. Please wait.

Everlasting Bass Tab

211 views 9 this week
no commentswrite comment
1 2 3 4 5
please rate
add to favorites
launch autoscroll
font size
0
reset
guitar tuner
Autoscroll
slow
fast
+/-
esc
set tempo
stop
Help us to improve Ultimate-Guitar.com Take our survey!
×
Author
Tuning
D A D G B E
Refused - Everlasting

drop d

h - hammer

intro (start the song with noise; play a C# note with the volume turned down and slowly 
turn it up)
G|-----------------------------------------------------------------------|
D|-----------------------------------------------------------------------|
A|----4-------------------------------------------------5-5-5-5-5-5-5-5--|
D|-----------------------------------------------------------------------|

main riff/chorus
G|-----------------------------------------------------------------------|
D|-----------------------------------------------------------------------|
A|----4---2h4-5-4-2-2-4-----5-5--5-5-5-----------------------------------|
D|--------------------------0-0--0-0-0-----------------------------------|

G|-----------------------------------------------------------------------|
D|-----------------------------------------------------------------------|
A|----4---2h4-5-4-2-2-4-----5-5---5-5------------------------------------|
D|--------------------------0-0---0-0------------------------------------|

fast part/verse
G|-----------------------------------------------------------------------|
D|-----------------------------------------------------------------------|
A|--4-4-2--5-7-7-7-------------------------------------------------------|
D|-----------------------------------------------------------------------|

G|-----------------------------------------------------------------------|
D|-----------------------------------------------------------------------|
A|--4-4-----------4-4------------4-4-------------4-4-2-5-----------------|
D|-----------------------------------------------------------------------|

breakdown
G|-----------------------------------------------------------------------|
D|-----------------------------------------------------------------------|
A|--4-4-4-4-4-------4h2-4--5-5-5-5-5-------------------------------------|
D|-----------------------------------------------------------------------|

end of breakdown
G|-----------------------------------------------------------------------|
D|-----------------------------------------------------------------------|
A|--4-(hold note/let ring)-----------------------------------------------|
D|-----------------------------------------------------------------------|


end on C# note

these are all the parts played on bass for the song, you can work out the structure yourself

by Laurence Grimwood
Suggest correction
Give kudos to tab author, rate the tab!
1 2 3 4 5
comments
print report bad tab
guest
You may want to rate the tab now too:
select rating
Please do not post tabs as comments. Select "correction" instead!