Oops, an error
Loading. Please wait.

Hook Line And Sinker Tab

version 2
version 2

Whole song

Interactive

816 views 1 this week
no commentswrite comment
1 2 3 4 5
please rate
add to favorites
launch autoscroll
font size
0
reset
how to read this tab
guitar tuner
Tab Pro tools
  • play this tab
  • loop segment
  • change instrument
  • show fretboard
  • metronome
×
Best way to learn
"Hook Line And Sinker"
Autoscroll
slow
fast
+/-
esc
set tempo
stop
Contributor
Hook Line and Sinker
Songs to Fan the Flames of Discontent
Refused

Intro
      Q   E  H        E        Q    E  H        E   8x 
E||------------------------|-------------------------|
B||------------------------|-------------------------|
G||*--9-------9------------|---9-------9-----------*-|
D||*--x-------x------------|---x-------x-----------*-|
A||---7-------7------------|---7-------7-------------|
D||-------7---8--------7---|--------7--8--------7----|
 
Pre-Verse 
                                                     NH       
  S S S S E  S S S S E  S S S S    E  S S S S Q      Q    E   
--------------------------------|----------------------------|
--------------------------------|----------------------------|
--------------------------------|------------------<>5-------|
--------------------------------|----------------------------|
--5-5-6-2----5-5-6-2----5-5-6-2-|-----5-5-6-2----------------|
--5-5-6-2----5-5-6-2----5-5-6-2-|-----5-5-6-2----------------|
 
Verse 1 
                                                   PM PM PM PM        
    S S S S E  S S S S E  S S S S    E  S S S S E  S  S  S  S  E  E   
|---------------------------------|----------------------------------|
|---------------------------------|----------------------------3--2--|
|*--------------------------------|----------------------------------|
|*--------------------------------|----------------------------------|
|---5-5-6-2----5-5-6-2----5-5-6-2-|-----5-5-6-2----------0--2--------|
|---5-5-6-2----5-5-6-2----5-5-6-2-|-----5-5-6-2----3--5--------------|
 
 
  W                   W                       Q    E  H        E   4x 
-------------------|---------------------||-------------------------|
-------------------|---------------------||-------------------------|
--7----------------|--5----------------*-||*--9-------9-----------*-|
--7----------------|--5----------------*-||*--x-------x-----------*-|
--5----------------|--3------------------||---7-------7-------------|
-------------------|---------------------||--------7--8--------7----|
 
 Verse 2
                                                  PM PM PM PM        
    S S S S E  S S S S E  S S S S    E  S S S S E  S  S  S  S  E  E   
|---------------------------------|----------------------------------|
|---------------------------------|----------------------------3--2--|
|*--------------------------------|----------------------------------|
|*--------------------------------|----------------------------------|
|---5-5-6-2----5-5-6-2----5-5-6-2-|-----5-5-6-2----------0--2--------|
|---5-5-6-2----5-5-6-2----5-5-6-2-|-----5-5-6-2----3--5--------------|
 
 
  W                   W                 
-------------------|-------------------|
-------------------|-------------------|
--7----------------|--5----------------|
--7----------------|--5----------------|
--5----------------|--3----------------|
-------------------|-------------------|
 
Bridge
 
    S S S E  S S S S S S E  S S S  4x    Q    Q    H               S S S E  S S SS S S E  S S S
|-----------------------------------||------------------------||----------------------------------|
|-----------------------------------||------------------------||----------------------------------|
|*--------------------------------*-||*---------------------*||*--------------------------------*-|
|*--------------------------------*-||*--2----2----2--------*||*--------------------------------*-|
|---5-2-6-2--2-2-5-6-5-2-6--5-3-2---||---2----1----2----------||---5-2-6-2--2-2-5-6-5-2-6--5-3-2--|
|---5-2-6-2--2-2-5-6-5-2-6--5-3-2---||---2----2----2----------||---5-2-6-2--2-2-5-6-5-2-6--5-3-2--|
 
 
    Q    Q    H              W                   H                  
|------------------------||-------------------|--------------------|
|------------------------||-------------------|--------------------|
|*---------------------*-||-------------------|--------------------|
|*--2----2----2--------*-||--2----------------|--L-----------------|
|---2----1----2----------||--2----------------|--L-----------------|
|---2----2----2----------||--2----------------|--L-----------------|
 
 
  W                   Q    E  H        E     Q    E  H        E   
-------------------|----------------------|----------------------|
-------------------|----------------------|----------------------|
-------------------|--9-------9-----------|--9-------9-----------|
--L----------------|--x-------x-----------|--x-------x-----------|
--L----------------|--7-------7-----------|--7-------7-----------|
--L----------------|-------7--8--------7--|-------7--8--------7--|
 
 
  Q    E  H        E     E  E  H.           
----------------------|---------------------|
----------------------|---------------------|
--9-------9-----------|--9------------------|
--x-------x-----------|--x------------------|
--7-------7-----------|--7------------------|
-------7--8--------7--|---------------------|
 
Verse 3

  S S S S E  S S S S E  S S S S  
--------------------------------|
--------------------------------|
--------------------------------|
--------------------------------|
--5-5-6-2----5-5-6-2----5-5-6-2-|
--5-5-6-2----5-5-6-2----5-5-6-2-|
 
                PM PM PM PM                                                
  E  S S S S E  S  S  S  S  E  E     W                   W                 
----------------------------------|-------------------|-------------------|
----------------------------3--2--|-------------------|-------------------|
----------------------------------|--7----------------|--5----------------|
----------------------------------|--7----------------|--5----------------|
-----5-5-6-2----------0--2--------|--5----------------|--3----------------|
-----5-5-6-2----3--5--------------|-------------------|-------------------|
 

Out
 
    S S S S Q    S S E  S S S S    Q    S S E  S S S S Q     
|-------------------------------|---------------------------|
|-------------------------------|---------------------------|
|*------------------------------|---------------------------|
|*------------------------------|---------------------------|
|---5-5-6-2--------2----5-5-6-2-|---------2----5-5-6-2------|
|---5-5-6-2--------2----5-5-6-2-|---------2----5-5-6-2------|
 
 
  S S E  S S S S Q    S S E       S S S E  S S S S S S E  S S S  4x 
-----------------------------||-----------------------------------|
-----------------------------||-----------------------------------|
-----------------------------||*--------------------------------*-|
-----------------------------||*--------------------------------*-|
----2----5-5-6-2--------2----||---5-2-6-2--2-2-5-6-5-2-6--5-3-2---|
----2----5-5-6-2--------2----||---5-2-6-2--2-2-5-6-5-2-6--5-3-2---|
 
 
    Q    Q    H               S S S E  S S S S S S E  S S S     
|------------------------||-----------------------------------|
|------------------------||-----------------------------------|
|*---------------------*-||*--------------------------------*-|
|*--2----2----2--------*-||*--------------------------------*-|
|---2----1----2----------||---5-2-6-2--2-2-5-6-5-2-6--5-3-2---|
|---2----2----2----------||---5-2-6-2--2-2-5-6-5-2-6--5-3-2---|
 
 
    Q    Q    H              Q    Q    H           Q    Q    H         
|------------------------||---------------------|---------------------|
|------------------------||---------------------|---------------------|
|*---------------------*-||---------------------|---------------------|
|*--2----2----2--------*-||--2----2----2--------|--2----2----2--------|
|---2----1----2----------||--2----2----2--------|--2----1----2--------|
|---2----2----2----------||--2----2----2--------|--2----2----2--------|
 
 
  Q    Q    H           Q    Q    H           Q    Q    H         
---------------------|---------------------|---------------------|
---------------------|---------------------|---------------------|
---------------------|---------------------|---------------------|
--2----2----2--------|--2----2----2--------|--2----2----2--------|
--2----2----2--------|--2----1----2--------|--2----2----2--------|
--2----2----2--------|--2----2----2--------|--2----2----2--------|
 
 
  W                  
-------------------||
-------------------||
-------------------||
--2----------------||
--2----------------||
--2----------------||
 
 
 
 
Duration Legend
---------------
W - whole
H - half
Q - quarter
E - 8th
S - 16th
 
 
Tablature Legend
----------------
L - tied note
x - dead note
NH - natural harmonic
PM - palm mute


comments
We did not receive enough feedback on this tab! Please rate:
print report bad tab
1 2 3 4 5
I want to post or [tab]
guest
You may want to rate the tab now too:
select rating
Please do not post tabs as comments. Select "correction" instead!