Oops, an error
Loading. Please wait.

New Noise Tab

version 1
version 1

Whole song

Interactive

13,300 views 9 this week
no commentswrite comment
1 2 3 4 5
x 7
add to favorites
launch autoscroll
font size
0
reset
how to read this tab
guitar tuner
Autoscroll
slow
fast
+/-
esc
set tempo
stop
Help us to improve Ultimate-Guitar.com Take our survey!
×
Song:New Noise
Artist:Refused
Tabbed by: Gon3mad (www.Gon3mad.com)

Tuning: DADGBe


(Intro/verse Riff)
Guitar 1
e-------------------------------------------
B-------------------------------------------
G--7-9-9-9-9-9-7-9-9-9-9-9-7-9-9-9-10-9-----
D-------------------------------------------
A-------------------------------------------
D-------------------------------------------


e-------------------------------------------
B-------------------------------------------
G--7-9-9-9-9-9-7-9-9-9-9-9-7-9-10-9---------
D-------------------------------------------
A-------------------------------------------
D-------------------------------------------

e-------------------------------------------
B-------------------------------------------
G--7-9-9-9-9-9-7-9-9-9-9-9-7-9-10-9---------
D-------------------------------------------
A-------------------------------------------
D-------------------------------------------

e-------------------------------------------
B-------------------------------------------
G--7-9-9-9-9-9-9*9*9*9*9*9*9*9*----------- *bend slowly a 1/4 step up
D-------------------------------------------
A-------------------------------------------
D-------------------------------------------


Play (Intro/Verse) riff 4xs

Play this riff under the intro on the 4th time around:
(Pre-Chorus Riff)
Guitar 2
e----------------------
B----------------------
G----------------------
D--0-2-0-2-0-2-3-0-2-3-
A--0-2-0-2-0-2-3-0-2-3-
D--0-2-0-2-0-2-3-0-2-3-

e----------------------
B----------------------
G----------------------
D--0-2-0-2-0-2-3-0-2-3-
A--0-2-0-2-0-2-3-0-2-3-
D--0-2-0-2-0-2-3-0-2-3-

e----------------------
B----------------------
G----------------------
D--0-2-0-2-0-2-3-0-2-3-
A--0-2-0-2-0-2-3-0-2-3-
D--0-2-0-2-0-2-3-0-2-3-

e----------------------
B----------------------
G----------------------
D--0-2-0-2-0-2-3-0-2-3-
A--0-2-0-2-0-2-3-0-2-3-
D--0-2-0-2-0-2-3-0-2-3-

Keyboard and drums for a few

("can I scream!!!!...")

(Chorus Riff)
Guitars 1 & 2
e----------------------------
B----------------------------
G----------------------------
D--0-2-2-2-2-2-2-0-2-3-0-2-3-
A--0-2-2-2-2-2-2-0-2-3-0-2-3-
D--0-2-2-2-2-2-2-0-2-3-0-2-3-

e----------------------------
B----------------------------
G----------------------------
D--0-2-2-2-2-2-2-0-2-3-0-2-3-
A--0-2-2-2-2-2-2-0-2-3-0-2-3-
D--0-2-2-2-2-2-2-0-2-3-0-2-3-

e----------------------------
B----------------------------
G----------------------------
D--0-2-2-2-2-2-2-0-2-3-0-2-3-
A--0-2-2-2-2-2-2-0-2-3-0-2-3-
D--0-2-2-2-2-2-2-0-2-3-0-2-3-

e----------------------------
B----------------------------
G----------------------------
D--0-2-2-2-2-2-2-0-2-3-0-2-0-
A--0-2-2-2-2-2-2-0-2-3-0-2-0-
D--0-2-2-2-2-2-2-0-2-3-0-2-0- play twice

 

Play (Intro/Verse Riff) Twice

Play (Chorus Riff) Twice

Play (Verse Riff) Twice

(Interlude Riff/progression)
Guitar 1
e--------------------------------------------------------------
B--------------------------------------------------------------
G-------------------------------------------------------------
D--2-2-2-2-2-2-0-0-0-0-0-0-x-x-2-2-2-2-0-0-0-0-x-x-9-9-9-9-9-9-
A--2-2-2-2-2-2-0-0-0-0-0-0-x-x-2-2-2-2-0-0-0-0-x-x-9-9-9-9-9-9-
D--2-2-2-2-2-2-0-0-0-0-0-0-x-x-2-2-2-2-0-0-0-0-x-x-9-9-9-9-9-9-

e--------------------------------------------------------------
B--------------------------------------------------------------
G-------------------------------------------------------------
D--2-2-2-2-2-2-0-0-0-0-0-0-x-x-2-2-2-2-0-0-0-0-x-x-9-9-9-9-9-9-
A--2-2-2-2-2-2-0-0-0-0-0-0-x-x-2-2-2-2-0-0-0-0-x-x-9-9-9-9-9-9-
D--2-2-2-2-2-2-0-0-0-0-0-0-x-x-2-2-2-2-0-0-0-0-x-x-9-9-9-9-9-9-

e--------------------------------------
B--------------------------------------
G--------------------------------------
D--7-7-7-7-7-7-5-5-5-5-5-5-3-3-3-3-3-3-
A--7-7-7-7-7-7-5-5-5-5-5-5-3-3-3-3-3-3-
D--7-7-7-7-7-7-5-5-5-5-5-5-3-3-3-3-3-3-

Guitar 2
(Interlude Riff Progression 2)

e------------------------------------------------------
B------------------------------------------------------
G--9-9-9-9-9-9-7-7-7-7-7-7-9-9-9-9-7-7-7-7-4-4-4-4-4-4-
D--x-x-x-x-x-x-x-x-x-x-x-x-x-x-x-x-x-x-x-x-x-x-x-x-x-x-
A--7-7-7-7-7-7-5-5-5-5-5-5-7-7-7-7-5-5-5-5-2-2-2-2-2-2-
D------------------------------------------------------

e------------------------------------------------------
B------------------------------------------------------
G--9-9-9-9-9-9-7-7-7-7-7-7-9-9-9-9-7-7-7-7-4-4-4-4-4-4-
D--x-x-x-x-x-x-x-x-x-x-x-x-x-x-x-x-x-x-x-x-x-x-x-x-x-x-
A--7-7-7-7-7-7-5-5-5-5-5-5-7-7-7-7-5-5-5-5-2-2-2-2-2-2-
D------------------------------------------------------

e--------------------------------------
B--------------------------------------
G--------------------------------------
D--7-7-7-7-7-7-5-5-5-5-5-5-3-3-3-3-3-3-
A--7-7-7-7-7-7-5-5-5-5-5-5-3-3-3-3-3-3-
D--7-7-7-7-7-7-5-5-5-5-5-5-3-3-3-3-3-3-

Guitar 1 

e------------
B------------
G------------
D--0-2-0-2-2-
A--0-2-0-2-2-
D--0-2-0-2-2- Play 7xs

Guitar 1
e--------
B--------
G------4-
D--2-2-4-
A--2-2-2-
D--2-2---

on the 4th time guitar 2 plays (Intro/verse Riff 4x's) end on the last note and let ring

Drums,keyboards again for a while.....

3:41

Guitar 1
w/Phaser

e--------------------
B--------------------
G--------------------
D--0h2-0h2-0h2p0h2h3-
A--0h2-0h2-0h2p0h2h3-
D--0h2-0h2-0h2p0h2h3- play 8 times

Guitar 2

e--------------------
B--------------------
G--------------------
D--0-----------------
A--0-----------------
D--0----------------- play 4 times then guitar 2 joins guitar 1 playing the above
riff on the 4th time through

Bass guitar,drums and crowd noise for a while 

e-------
B-------
G-------
D--2-2--
A--2-2--
D--2-2--


e-----------------------
B-----------------------
G-----------------------
D--0h2-0h2-0h2p0h2h3-0--
A--0h2-0h2-0h2p0h2h3-0--
D--0h2-0h2-0h2p0h2h3-0-- Play this over and over till the end.
Suggest correction
comments
print report bad tab
guest
You may want to rate the tab now too:
select rating
Wanna post a correction for this tab? Suggest correction