Oops, an error
Loading. Please wait.

New Noise Bass Tab

version 2
version 2

Whole song

Interactive

6,293 views 18 this week
1 commentread comment
1 2 3 4 5
x 4
add to favorites
launch autoscroll
font size
0
reset
guitar tuner
Autoscroll
slow
fast
+/-
esc
set tempo
stop
Help us to improve Ultimate-Guitar.com Take our survey!
×
Author
Tuning
D A D G B E
-------------------------------------------------------------------------------
			     New Noise - Refused
-------------------------------------------------------------------------------

Tabbed By : Louis Richards AKA MadClownDisease
e-mail: hereticbynature@hotmail.com

Tuning: Drop D

I am pretty much 100% certain on all of this except perhaps the last section (there
be another bass bit in there) but this sounds fine. This is an easy enough riff just quite
Enjoy.

Intro/Main Riff (0:18)
G|--------------------------------|
D|--------------------------------| x3
A|--------------------------------|
D|-0-2-2-2-2-0-0-2-3-2-0-3--------|

G|--------------------------------|
D|--------------------------------| x1
A|--------------------------------|
D|-0-2-2-2-2-0-0-2-3-2-0-3--3-3-3-|

G|--------------------------------|
D|--------------------------------| x3
A|--------------------------------|
D|-0-2-2-2-2-0-0-2-3-2-0-3--------|

G|--------------------------------|
D|--------------------------------| x5
A|--------------------------------|
D|-0-2-2-2-2-0-0-2-3-2-0-3--3-3-3-|

Interlude (0:45) - no bass

Chorus (1:08) x2
G|--------------------------------|
D|--------------------------------| x3
A|--------------------------------|
D|-0h2-2-2-2-0-0h2-3-2-0-3--------|

G|--------------------------------|
D|--------------------------------| x1
A|--------------------------------|
D|-0h2-2-2-2-0-0h2-3-2-0----------|

Verse (1:26) - no bass

Chorus (1:44) x2

Verse (2:02) - no bass

Bridge (2:20) This part is similar to the vocal melody
G|---------------------------------------------------------------------------------------|
D|---------------------------------------------------------------------------------------|
A|------------------------------------------------------------------2-----2--2-2----2----|
D|-0h2---2--2-3p2--3p2---0----0--0-2p0--2p0---0h2---2--2-3p2--3p2------------------------|

G|---------------------------------------------------------------------------------------|
D|---------------------------------------------------------------------------------------|
A|------------------------------------------------------------------2-----2--2-2----2----|
D|-0h2---2--2-3p2--3p2---0----0--0-2p0--2p0---0h2---2--2-3p2--3p2------------------------|

G|--------------------------------------------------------------|
D|--------------------------------------------------------------|
A|-0-----0--0-0----0--------------------------------------------|
D|-----------------------5-----5--5-5----5----3-----3--3-3----3-|

Heavy bit (2:45)
G|---------------------|
D|---------------------| x7
A|---------------------|
D|-0h2---------0h2-2---|

G|---------------------|
D|---------------------|
A|-------2-------------|
D|-2--2------------0-2-|

Verse (3:05) - no bass

Interlude (3:22) - no bass to start with but at (3:31) start the bit below along with
snare
G|---------------------|
D|---------------------| x2
A|---------------------|
D|-2-------------------|

G|---------------------|
D|---------------------| x4
A|---------------------|
D|-2---------2---------|

Last Chorus (3:49)
Start with the normal chorus x2 (the second time round is just bass) then:
G|------------------------------|
D|------------------------------| x12
A|------------------------------|
D|-0h2-2-2-2-0-0-2-3-2-0-3-2--0-|

V I think the bass might start playing it earlier than the guitars (ie still in the part
though I am not sure V
G|------------------------------|
D|------------------------------| x4
A|------------------------------|
D|-0h2-2-------2-2--2--3--2-2-2-|

G|------------------------------|
D|------------------------------| x4
A|------------------------------|
D|-0h2-2-2-2-0-0-2-3-2-0-3-2--0-|

G|------------------------------|
D|------------------------------|
A|------------------------------|
D|-2r---------------------------|

| /  slide up
| \  slide down
| h  hammer-on
| p  pull-off
| ~  vibrato
| +  harmonic
| x  Mute note
===============================================================================
Suggest correction
comments
print report bad tab
1 comment total.
0 reply
Pessimisticall 172 Jan 04, 2009 03:14 PM

Good tab.

guest
You may want to rate the tab now too:
select rating
Wanna post a correction for this tab? Suggest correction