Oops, an error
Loading. Please wait.

Pretty Face Bass Tab

242 views 1 this week
no commentswrite comment
1 2 3 4 5
3 more votes to show rating
add to favorites
launch autoscroll
font size
0
reset
guitar tuner
Autoscroll
slow
fast
+/-
esc
set tempo
stop
Help us to improve Ultimate-Guitar.com Take our survey!
×
Author
Intro
G|----------------|
D|----------------|
A|----------------|
D|-00001310-------|x4

Verse
G|--------------------------------------|
D|--------------------------------------|
A|--------------------------------------|
D|-666667--666667--666667--666667-------|x2

Chorus
G|----------------------------------|
D|----------------------------------|
A|----------------------------------|
D|-3-3-1--3-3-1--3-3-1--3-3-1~------|

Verse 2
G|--------------------------------------|
D|--------------------------------------|
A|--------------------------------------|
D|-666667--666667--666667--666667-------|x2

Chorus 2
G|-----------------------------------|
D|-----------------------------------|
A|-----------------------------------|
D|-3-3-1--3-3-1--3-3-1--3-3-1--------|

G|----------------------------------|
D|----------------------------------|
A|----------------------------------|
D|-3-3-1--3-3-1--3-3-1--3-3-1-------|

G|--------------------------|
D|--------------------------|
A|--------------------------|
D|-0~-----------------------|

Bridge (No Bass)

Outro
G|----------------|
D|----------------|
A|----------------|
D|-00001310-------| x8


Tabbed by Kyle

AIM: calibanhardcore
Suggest correction
Give kudos to tab author, rate the tab!
1 2 3 4 5
comments
print report bad tab
guest
You may want to rate the tab now too:
select rating
Wanna post a correction for this tab? Suggest correction