Oops, an error
Loading. Please wait.

Rather Be Dead Tab

version 1
version 1

Whole song

Interactive

4,791 views 6 this week
no commentswrite comment
1 2 3 4 5
please rate
add to favorites
launch autoscroll
font size
0
reset
how to read this tab
guitar tuner
Autoscroll
slow
fast
+/-
esc
set tempo
stop
Help us to improve Ultimate-Guitar.com Take our survey!
×
Contributor
Difficulty
novice
Band: Refused
Song: Rather be Dead
Album: Songs to fan the flames of discontent
Tuning: Normal (EADGBe)

. = palm mute

intro and verse
----------------|
----------------|
----------------|
-22-22-222-22-2-|
-22-22-222-22-2-|
-00-00-000-00-0-|
 .. .. ... .. .

bridge
---------|
---------|
---------|
-2--3--5-|
-2--3--5-|
-0--1--3-|

stick
---------|
---------|
-3-3-3---|
-3-3-3-2-|
-1-1-1-2-|
-------0-|
“poisoned my fingers...”

solo
----------------------------------------|
----------------------------------------|
----------------------------------------|
--------------------------9---------7---|
-7----7h9-9----9h10-10------10-10-9---9-|
----------------------------------------|

build-up
-----------------------|
-----------------------|
-----------------------|
-444--------555--77-55-|
-222-222222-333--55-33-|
-----000000------------| x4
 ... ...... ...
“but I’d rather be alive...”

-------------------------|
-------------------------|
-------------------------|
-444----------555--77-55-|
-222-22-3-222-333--55-33-|
-----00-1-000------------| x4
              ...
end
---------|----------------|---------|
---------|----------------|---------|
-3-3-3---|----------------|-3-3-3---|
-3-3-3-2-|-22-22-222-22-2-|-3-3-3-2-|
-1-1-1-2-|-22-22-222-22-2-|-1-1-1-2-|
-------0-|-00-00-000-00-0-|-------0-|
x4        x4               x1
comments
We did not receive enough feedback on this tab! Please rate:
print report bad tab
1 2 3 4 5
I want to post or [tab]
guest
You may want to rate the tab now too:
select rating
Please do not post tabs as comments. Select "correction" instead!