Oops, an error
Loading. Please wait.

Rather Be Dead Bass Tab

version 2
version 2

Whole song

Interactive

865 views 1 this week
no commentswrite comment
1 2 3 4 5
3 more votes to show rating
add to favorites
launch autoscroll
font size
0
reset
guitar tuner
Autoscroll
slow
fast
+/-
esc
set tempo
stop
Help us to improve Ultimate-Guitar.com Take our survey!
×
Author
-------------------------------------------------------------------------------
			     RATHER BE DEAD - Refused
-------------------------------------------------------------------------------

Tabbed By : thinkposi

Tuning: standard EADG

Intro 
come in around 0:49
G |---------------------------------------|
D |---------------------------------------| x4
A |---------------------------------------|
E |--0-0----0-0----0-0-0----0-0----0------|


G |-------------------------------------------0-0-0-|
D |-2-2-2-------3-3-3-------2-2-2-------3-3-3-------|  x2
A |-------3-3-3-------3-3-3-------3-3-3-------------|
E |-------------------------------------------------|

Verse
G|-----------------------------------|
D|-----------------------------------|  x4
A|-----------------------------------|
E|--0-0----0-0----0-0-0----0-0----0--|

Chorus
G |---------------------1-3-3--------|
D |---------2-2-2-0-2-3-------2-3--2-|  x4
A |-1-1-0----------------------------|
E |-------0--------------------------|

Bridge
G |-----------------------------------------------------|
D |--------------5----4h5-------------------------------|  x2
A |-3-3-3-3---------------7----2h3-3-3-3---5---7--------|
E |-----------------------------------------------------|

2:18sec.
G |---------------------------------|
D |---------------------------------| x4
A |-2-2-2-------------3-3-3-5-5-3-3-|
E |-------0-0-0-0-0-0---------------|

G |---------------------------------|
D |---------------------------------| x4
A |-2-2-2-------------3-3-3-5-5-3-3-|
E |-------0-0-1-0-0-0---------------|

chorus x2
verse x3

end on
G |-----------|
D |-----------| 
A |-1-1-0-----|
E |-------0---|

Suggest correction
Give kudos to tab author, rate the tab!
1 2 3 4 5
comments
print report bad tab
guest
You may want to rate the tab now too:
select rating
Wanna post a correction for this tab? Suggest correction