Oops, an error
Loading. Please wait.

Rather Be Dead Tab

version 2
version 2

Whole song

Interactive

6,327 views 1 this week
no commentswrite comment
1 2 3 4 5
excellent!
x 7
add to favorites
launch autoscroll
font size
0
reset
how to read this tab
guitar tuner
Autoscroll
slow
fast
+/-
esc
set tempo
stop
Help us to improve Ultimate-Guitar.com Take our survey!
×
Author
This is my first tab I hope you like it. Leave comments.



Standard Tuning




Intro 

|----------------|
|----------------|
|----------------|
|-22-22-222-22-2-|   X4 
|-22-22-222-22-2-|
|-00-00-000-00-0-|
  .. .. ... .. .
Bridge 

|---------|
|---------|
|---------|
|-2--3--5-|   X4
|-2--3--5-|
|-0--1--3-|


Verse

|----------------|
|----------------|
|----------------|
|-22-22-222-22-2-|   X4 
|-22-22-222-22-2-|
|-00-00-000-00-0-|
  .. .. ... .. .

Stick

|---------|
|-----2---|
|-3-3-2---|
|-3-3-2-2-|   X4 
|-1-1---2-|
|-------0-|

Verse

|----------------|
|----------------|
|----------------|
|-22-22-222-22-2-|   X3 
|-22-22-222-22-2-|
|-00-00-000-00-0-|
  .. .. ... .. .

|----------------|
|----------------|
|----------------|
|-22-22-22---9---|
|-22-22-22--7-9--|
|-00-00-02-9-----|
           ++++

Stick

|---------|
|-----2---|
|-3-3-2---|
|-3-3-2-2-|   X4 
|-1-1---2-|
|-------0-|

Solo

|----------------------------------------|
|----------------------------------------|
|----------------------------------------|
|--------------------------9---------7---|
|-7----7h9-9----9h10-10------10-10-9---9-|
|----------------------------------------|

Build-up

|-----------------------|
|-----------------------|
|-----------------------|
|-444--------333--77-55-|
|-222-222222-111--55-33-|
|-----000000------------|
  ... ...... ...  .. .. 

|-------------------------|
|-------------------------|
|-------------------------|
|-444----------555--77-55-|
|-222-22-3-222-333--55-33-|
|-----00-1-000------------|
               ...

Ending


|---------|
|-----2---|
|-3-3-2---|
|-3-3-2-2-|   X4 
|-1-1---2-|
|-------0-|

|----------------|
|----------------|
|----------------|
|-22-22-222-22-2-|   X4 
|-22-22-222-22-2-|
|-00-00-000-00-0-|
  .. .. ... .. .


|---------|
|-----2---|
|-3-3-2---|
|-3-3-2-2-|   
|-1-1---2-|
|-------0-|


. = palm mute 
+ = harmonics
Suggest correction
comments
print report bad tab
guest
You may want to rate the tab now too:
select rating
Wanna post a correction for this tab? Suggest correction