Oops, an error
Loading. Please wait.

Refused Are Fucking Dead tab

version 3
version 3

Whole song

Interactive

by Refused
5,998 views 6 this week
5 commentsread comments
1 2 3 4 5
x 10
add to favorites
×
Save as Personal and add changes to this tab that will be seen only by you. Learn more ›
×
You can save this tab as Personal to edit and correct it or add notes. All changes will be seen only by you. Learn more »
launch autoscroll
font size
0
reset
how to read this tab
guitar tuner
edit
Autoscroll
slow
fast
+/-
esc
set tempo
stop
-----------------------------------------------------------------------------
                          Refused Are Fucking Dead - Refused
-----------------------------------------------------------------------------

Tabbed by: Blake

Feel free to leave a comment if something's wrong.

Tuning: Drop D

Intro: Repeat from 0:00-0:26 
e|-----------3---------------------|
B|-----------3---------------------| 
G|-----------3---------------------|
D|-5-x-x-5-x---x-x-x---------------|
A|-5-x-x-5-x---x-x-x---------------|
D|-5-x-x-5-x---x-x-x-5-5b-5b-5b-3--|

e|-----------3---3-----------------|
B|-----------3---3-----------------| 
G|-----------3---3-----------------|
D|-5-x-x-5-x---x---x---------------|
A|-5-x-x-5-x---x---x---------------|
D|-5-x-x-5-x---x---x-5-5b-5b-5b-3--|


Verse: Repeat from 0:27-1:02
e|----------------------------|
B|-3-x-x-3-3-3-3-x-x-3-3-x-x--|
G|-0-x-x-0-0-0-0-x-x-0-0-x-x--|
D|-5-x-x-5-5-5-5-x-x-5-5-x-x--|
A|-5-x-x-5-5-5-5-x-x-5-5-x-x--|
D|----------------------------|


Chorus: Repeat from 1:03-1:28
e|-----------------------------|
B|-----------------------------|
G|-7p0-6p0-6h7p0-3-3-3-3h4p3p0-|
D|-----------------------------|
A|-----------------------------|
D|-----------------------------|


Drum Break: 1:29
e|-------|
B|-------|
G|-7-6-7-|
D|-5-5-5-|
A|-5-5-5-|
D|-5-5-5-|


Chorus: Repeat from 1:31-1:48
e|-----------------------------|
B|-----------------------------|
G|-7p0-6p0-6h7p0-3-3-3-3h4p3p0-|
D|-----------------------------|
A|-----------------------------|
D|-----------------------------|


Break 1: 1:04-2:06
e|-------------------------------------------|
B|-------------------------------------------|
G|-2~----------------2b----------------------|
D|-------------------------------------------|
A|-------------------------------------------|
D|-------------------------------------------|


Chorus: Repeat from 2:07-2:15
e|-----------------------------|
B|-----------------------------|
G|-7p0-6p0-6h7p0-3-3-3-3h4p3p0-|
D|-----------------------------|
A|-----------------------------|
D|-----------------------------|
        
                
Break 2(Pt.1): Repeat from 2:16-2:24
e|---------------------------|
B|-3-3-3-3-3p2---5-5-5h6p5-0-|
G|---------------------------|
D|---------------------------|
A|---------------------------|
D|---------------------------|


Break 2(Pt.2): Repeat from 2:25-2:30
e|---------------3-3-3h5p3---|
B|-3-3-3-3-3h5-------------3-|
G|---------------------------|
D|---------------------------|
A|---------------------------|
D|---------------------------|


Lead-in: Play from 2:31-2:35
e|-------------------------------------|
B|-3-3-3-3-3-5-5-5-0-0-0---------------|
G|-----------------------3-3-3---------|
D|-----------------------------2-2-3~--|
A|-------------------------------------|
D|-------------------------------------|
pm . . . . . . . . . . . . . . . .


Chorus: Repeat from 2:36-2:53
e|-----------------------------|
B|-----------------------------|
G|-7p0-6p0-6h7p0-3-3-3-3h4p3p0-|
D|-----------------------------|
A|-----------------------------|
D|-----------------------------|


Verse: Repeat from 2:54-3:28 (Let note ring out from 3:09-3:11)
e|----------------------------|
B|----------------------------|
G|-7-x-x-7-7-7-7-x-x-7-7-x-x--|
D|-5-x-x-5-5-5-5-x-x-5-5-x-x--|
A|-5-x-x-5-5-5-5-x-x-5-5-x-x--|
D|-5-x-x-5-5-5-5-x-x-5-5-x-x--|


Drum Break: 3:29
e|-------|
B|-------|
G|-7-6-7-|
D|-5-5-5-|
A|-5-5-5-|
D|-5-5-5-|


Chorus: Repeat from 3:31-3:39
e|-----------------------------|
B|-----------------------------|
G|-7p0-6p0-6h7p0-3-3-3-3h4p3p0-|
D|-----------------------------|
A|-----------------------------|
D|-----------------------------|


Ring Out: 3:40
e|------|
B|------|
G|------|
D|--3~--|
A|------|
D|------|


Bridge: 3:41-3:59
Bass and Effects.


Outro: Repeat from 4:00-4:34
e|-------------------------------------------------|
B|-------------------------------------------------|
G|-9-9--9-9-9--9-9--9-9-9--5-5--5-5-5--5-5--5-5-5--|
D|-7-7--7-7-7--7-7--7-7-7--5-5--5-5-5--5-5--5-5-5--|
A|-5-5--5-5-5--5-5--5-5-5--3-3--3-3-3--3-3--3-3-3--|
D|-0-0--0-0-0--0-0--0-0-0--3-3--3-3-3--3-3--3-3-3--|


End On: 4:35
e|-----|
B|-----|
G|-----|
D|-----|
A|-----|
D|--2--|


            
            
Suggest correction
Creating personal tab
Creating personal tab
You can edit any tab online and save it as your Personal.

You can edit, replace or remove any tab part or add personal notes – all changes will be seen only by you.

Personal tabs can be accessed anytime from any device, even offline.
Learn more »
comments
print report bad tab
5 comments total. Showing first comments.
0 reply
feyfield 10 Aug 11, 2010 07:10 AM

Sounds good, better than the others.

0 reply
rolfoslo 1,081 Jun 29, 2012 11:27 AM

Thanks! Great Tab!
This one sound so right

0 reply
stogma 20 Nov 17, 2012 01:23 PM

Sounds good. Well done.

This part isn't right though.
Verse: Repeat from 0:27-1:02
e|----------------------------|
B|-8-x-x-8-8-8-8-x-x-8-8-x-x--|
G|-7-x-x-7-7-7-7-x-x-7-7-x-x--|
D|-5-x-x-5-5-5-5-x-x-5-5-x-x--|
A|-5-x-x-5-5-5-5-x-x-5-5-x-x--|
D|-5-x-x-5-5-5-5-x-x-5-5-x-x--|

I saw them live the other night and I was watching this part as it's my favourite riff in the song. Only one guitarist is playing it, the other guitarist isn't doing anything, and he plays it at the 3rd to 5th fret position.

Something like this. That is probably not what he was playing, just trying to explain the position.
e|---
B|---
G|-5-
D|-5-
A|-3-
D|-3-

guest
You may want to rate the tab now too:
select rating
Wanna post a correction for this tab? Suggest correction