Oops, an error
Loading. Please wait.

Summerholidays Vs Punkroutine Bass Tab

version 1
version 1

Whole song

Interactive

2,530 views 3 this week
no commentswrite comment
1 2 3 4 5
accurate
x 3
add to favorites
launch autoscroll
font size
0
reset
guitar tuner
Autoscroll
slow
fast
+/-
esc
set tempo
stop
Help us to improve Ultimate-Guitar.com Take our survey!
×
refused- summerholidays vs. punkroutine
tabbed by tom tha bassist

bass intro
g----------------------------
d--2-2-2-2-2-2-2-2-2---------
a----------------------------
e----------------------------

Verse
g----------------------------------------
d----------2-2----------2-0--------------
a----------------------------------------
e--0-2-4--------0-2-4-------------------

chorus variation
g-------------------------------------------
d--2-2-2-------2-2-2-------4-4-4--0-0-------
a-------------------------------------------
e----------0--0--------0--0-----------------

Chorus
g-----------------0-0----0-----------------------0h--------
d--2-2-2------2-2-----2-----4-4-4--0--0--------------------
a---------------------------------------------0-0-0--------
e--------0-0-----------------------------------------------

bass solo
g---------------------------------------
d--4-4-4-0--4-4-0--4-4-0--4-2-0---------
d---------------------------------------
e---------------------------------------

bass solo- part 2
g-----------------------------------------------------------
d----------------------0---------0-------0-------0---------
a--2-2-2-2-2-2-2-2-0-2---2-----2------2-------2------------
e--------------------------2-2------2-------2-------2-2----

bass solo- part 3
g-----------------------------------------------------
d-----------------------------------------------------
a-----------------------------------------------------
e---0-0-0-0-0-0-0-0--0-2-3-0h-3-2-0-------------------

bass solo- riff 4
g-----------------------------------------------------------
d-------------------------------------------------------
a-2-2-2---2-2---2-2---2--------------------------------
e-------3----3------3---3-2-0-0-0-0-0-0-0-0-2-3-0h--3-2-0---

bass solo- riff 5
g-----------------------------------------------------------
d--------------------4-4-4-4-2-2-2-2-0-0-0-0----------------
a--2-2-2---2-2---2-2------------------------3-3-3-3-2-2-2-2-
e--------3-----3--------------------------------------------

outro
g---------------------------------------------------------
d--4-4-4-4-2-2-2-2-0-0-0-0---------2-2-2-2-2-2-2-2--------
a--------------------------3-3-3-3------------------------
e---------------------------------------------------------

order:
guitar intro
guitar chord intro x2
bass+guitar intro x2
verse x8
chorus x2
verse x9
2 or so beats rest
chorus x5
chorus variation
bass solo
bass solo 2 x5
bass solo 3 x4
bass solo 4 x3
bass solo 5
chorus x4
chorus variation x2
outro
Suggest correction
What's this?
You can suggest a correction to this tab. Community and Mods will review your correction and vote to approve or reject it.
comments
We did not receive enough feedback on this tab! Please rate:
print report bad tab
1 2 3 4 5
guest
You may want to rate the tab now too:
select rating
Please do not post tabs as comments. Select "correction" instead!