Oops, an error
Loading. Please wait.

Sunflower Princess Tab

138 views 1 this week
no commentswrite comment
1 2 3 4 5
please rate
add to favorites
launch autoscroll
font size
0
reset
how to read this tab
guitar tuner
Autoscroll
slow
fast
+/-
esc
set tempo
stop
Help us to improve Ultimate-Guitar.com Take our survey!
×
Author
Intro:
D#|-----------------|
 A|-----------------|
F#|-----7-7---------|
C#|--0--7-7--0--4---|
G#|--0--5-5--0--4---|
C#|--0-------0--4---|

Verse:
D#|----------------------------------------------------------------------------------------------|
 A|----------------------------------------------------------------------------------------------|
F#|---------------------8-7---------7-6--------------------------------8-7---------7-6-----------|
C#|--0-0-0--1-3--0-0-0--8-7--0-0-0--7-6--4--1-1-1---0-0-0--1-3--0-0-0--8-7--0-0-0--7-6--4--1-3---|
G#|--0-0-0--1-3--0-0-0--6-5--0-0-0--5-4--4--1-1-1---0-0-0--1-3--0-0-0--6-5--0-0-0--5-4--4--1-3---|
C#|--0-0-0--1-3--0-0-0-------0-0-0-------4--1-1-1---0-0-0--1-3--0-0-0-------0-0-0-------4--1-3---|

Bridge:
D#|--------------------|
 A|--------------------|
F#|--------------------|
C#|--0--0-0--0-0--0-0--|
G#|--0--0-0--0-0--0-0--|
C#|--0--0-0--0-0--0-0--|

                                             Chorus
D#|-----------------------------------------|--------------------------------------------|
 A|-----------------------------------------|--------------------------------------------|
F#|---------------------8-7---------7-6-----|--------------------------------------------|
C#|--0-0-0--1-3--0-0-0--8-7--0-0-0--7-6--4--|--------------------------------------------|
G#|--0-0-0--1-3--0-0-0--6-5--0-0-0--5-4--4--|--0-0-0-0-0-0-0-0--0-0-0--0-0-0-------------|
C#|--0-0-0--1-3--0-0-0-------0-0-0-------4--|--0-0-0-0-0-0-0-0--0-0-0--0-0-0-------------|

 Break/Outro
D#|----------------------|----------------------------------------------------------------------||
 A|----------------------|----------------------------------------------------------------------||
F#|----------------------|----------------------------------------------------------------------||
C#|--0-0-0--0-0-0--------|--0--0-0--0-0--0-0--0-0-0-0-0-----------------------------------------||
G#|--0-0-0--0-0-0--------|--0--0-0--0-0--0-0--0-0-0-0-0-----------------------------------------||
C#|--0-0-0--0-0-0--------|--0--0-0--0-0--0-0--0-0-0-0-0-----------------------------------------||
Suggest correction
Give kudos to tab author, rate the tab!
1 2 3 4 5
comments
print report bad tab
guest
You may want to rate the tab now too:
select rating
Please do not post tabs as comments. Select "correction" instead!