Oops, an error
Loading. Please wait.

The Apollo Programme Was A Hoax Bass Tab

version 1
version 1

Whole song

Interactive

818 views 1 this week
no commentswrite comment
1 2 3 4 5
3 more votes to show rating
add to favorites
launch autoscroll
font size
0
reset
guitar tuner
Autoscroll
slow
fast
+/-
esc
set tempo
stop
Help us to improve Ultimate-Guitar.com Take our survey!
×
Author
Intro:           
|----------------|------------|
|----------------|------------|
|-5~---5-0~-02~--|------------|
|----------------|5~-5-3~--2~-|

|--------------------|-------------------|----------------------|
|--------------------|-------------------|----------------------|
|-7~-7-6~-6-2~-------|-7~-7-6~-6-2~1-0---|-7~-7-6~-6-9~-10~12~--|
|--------------3~-5~-|-----------------4~|----------------------|

Verse:
|--------------------|-------------------|-----------------------|--------|
|--------------------|-------------------|-----------------------|--------|
|-5~----2~----0------|-5~--5-2~--2-0-----|-5~--5-3~--3-0---------|--------|
|---------------5~2~-|---------------3~2~|---------------3~~1~~5~|-6[bend]|

Chorus:
|----------------|---------------|
|----------------|---------------|
|-5~---5-0~-02~--|---------------|
|----------------|5~-5-3~--5/2-2~|

Verse:
|--------------------|-------------------|-------|
|--------------------|-------------------|-------|
|-5~--5-2~--2-0------|-5~--5-2~--2-0-----|-------|
|---------------6~5~-|---------------3~2~|-2~~1~~|
Suggest correction
Give kudos to tab author, rate the tab!
1 2 3 4 5
comments
print report bad tab
guest
You may want to rate the tab now too:
select rating
Wanna post a correction for this tab? Suggest correction