Oops, an error
Loading. Please wait.

The Real Tab

79 views 3 this week
no commentswrite comment
1 2 3 4 5
3 more votes to show rating
add to favorites
launch autoscroll
font size
0
reset
how to read this tab
guitar tuner
Autoscroll
slow
fast
+/-
esc
set tempo
stop
Help us to improve Ultimate-Guitar.com Take our survey!
×
Author
  Intro				      Verse
D#|------------------------|----------------|----------------------------------------------------|
 A|--10----10--------(x )--|----------------|------------------------------------------------(x3)|
F#|------------------------|----------------|---------7-5---------7-5-----------7-8-8-7-8-8------|
C#|--7--0--7--0-0-0--------|--1-1-1-1-1--0--|--0-0-0--7-5--0-0-0--7-5--6-6-6-6--7-8-8-7-8-8------|
G#|-----0-----0-0-0--------|--1-1-1-1-1--0--|--0-0-0--5-3--0-0-0--5-3--6-6-6-6--5/6-6-5/6-6------|
C#|-----0-----0-0-0--------|--1-1-1-1-1--0--|--0-0-0-------0-0-0-------6-6-6-6-------------------|

					      Chorus
D#|---------------------------------------|-----------------------------------------------------|
 A|---------------------------------------|-----------------------------------------------------|
F#|--------7-5---------7-5-----------8--8-|-6-6-6-6-6-------------------6-6-6-6-----------------|
C#|-0-0-0--7-5--0-0-0--7-5--6-6-6-6--8--8-|-6-6-6-6-6--6-8-8-8--0--0-0--6-6-6-6--6-8-8-8--0--0-0|
G#|-0-0-0--5-3--0-0-0--5-3--6-6-6-6--6--6-|-4-4-4-4-4--6-8-8-8--0--0-0--4-4-4-4--6-8-8-8--0--0-0|
C#|-0-0-0-------0-0-0-------6-6-6-6-------|------------6-8-8-8--0--0-0-----------6-8-8-8--0--0-0|

   Repeat Verse/Chorus

	    Break/Outro
D#|-------|-----------------------------------------------------------------------|-----||
 A|-------|-----------------------------------------------------------------(x )--|-----||
F#|-------|-------------------------------------3-5-----5-7-----------------------|-----||
C#|--1-0--|--1--4-3--0-0-0-0-0-0-0---1--8--0-0--3-5--0--5-7--0-0-0-0-0-0-0--------|--0--||
G#|--1-0--|--1--4-3--0-0-0-0-0-0-0---1--8--0-0--3-5--0--3-5--0-0-0-0-0-0-0--------|--0--||
C#|--1-0--|--1--4-3--0-0-0-0-0-0-0---1--8--0-0-------0-------0-0-0-0-0-0-0--------|--0--||

Suggest correction
Give kudos to tab author, rate the tab!
1 2 3 4 5
comments
print report bad tab
guest
You may want to rate the tab now too:
select rating
Wanna post a correction for this tab? Suggest correction