Oops, an error
Loading. Please wait.

The Shape Of Punk To Come Bass Tab

version 1
version 1

Whole song

Interactive

1,779 views 6 this week
no commentswrite comment
1 2 3 4 5
1 last vote to show rating
add to favorites
launch autoscroll
font size
0
reset
guitar tuner
Autoscroll
slow
fast
+/-
esc
set tempo
stop
Help us to improve Ultimate-Guitar.com Take our survey!
×
Author
Difficulty
intermediate
Refused_The Shape Of Punk To Come
Standard Tuning

Intro/Verse
--------------------------------|
--------------------------------|
-----------5--------------5-----|
-2-0-2-3-5---0-2--0-2-3-5---0-0-|

Break
---------------------------------|
---------------------------------|
-2-----2-----2-2-2--3-----5-5555-|
----0-----0------------0---------|

Chorus
-------------------------------------- ]
-------------------------------------- ]
-------------------------------------- ]
-2-4-2-4-2-4-2-4-2--0-2-0-2-0-2-0-2-0- ]

--------- ]         --------------------------------|
--------- ]         --------------------------------|
-777777-- ]         -7777777--5555555---------------|
--------- ] x3 then -------------------555555555555-|

Break
------------------|
------------------|
------------------|
-2----2----3----2-|

------------------------|
------------------------|
------------------------|
-0-2-5-XX-0-0-2-XXXXXXX-| several times then:

------------------------|
------------------------|
-0-2-5-XX-0-0-2-XXXXXXX-|
------------------------| x2

--------------------------------|
--------------------------------|
-0-2-5-2-5-2-----0-2-5-2-5-2----|
-------------0-2------------0-2-| several times

Outro
-----------------------------------------------------------------|
-----------------------------------------------------------------|
-2-----2-----2-2-2--2-----2-----2-2-2--3-----3-----3-3-3--555555-|
----0-----0------------0-----0------------0-----0----------------|
Suggest correction
Give kudos to tab author, rate the tab!
1 2 3 4 5
comments
print report bad tab
guest
You may want to rate the tab now too:
select rating
Wanna post a correction for this tab? Suggest correction