Oops, an error
Loading. Please wait.

The Shape Of Punk To Come Tab

version 1
version 1

Whole song

Interactive

11,027 views 9 this week
2 commentsread comments
1 2 3 4 5
excellent!
x 19
add to favorites
launch autoscroll
font size
0
reset
how to read this tab
guitar tuner
Autoscroll
slow
fast
+/-
esc
set tempo
stop
Help us to improve Ultimate-Guitar.com Take our survey!
×
THE SHAPE OF PUNK TO COME - REFUSED
tabbed by:Edvin Thorbjörnsson

Intro (play this two times)
e|-------------------------------------------------------------------------]
B|-------------------------------------------------------------------------]
G|-------------------------------------------------------------------------]
D|-------------------------------------------------------------------------]
A|------0-45----------0-45----------0-45---------0-------------------------]
E|2-0-2------0-2~-0-2------00-2-0-2------0-2-0-2---------------------------]

verse main part(play this over and over again)
e|-------------------------------------------------------------------------]
B|-------------------------------------------------------------------------]
G|-------------------------------------------------------------------------]
D|-------------------------------------------------------------------------]
A|------0-45----------0-45-------------------------------------------------]
E|2-0-2------0-2~-0-2------00----------------------------------------------]

second part of the first verse(play this once)
e|-------------------------------------------------------------------------]
B|-------------------------------------------------------------------------]
G|-4---4---4---5---7-------------------------------------------------------]
D|-4-2-4-2-4-2-5-2-7-------------------------------------------------------]
A|-2-2-2-2-2-2-3-2-5-------------------------------------------------------]
E|---0---0---0---0---------------------------------------------------------]

After this you play the main part 3 times and then it comes another part...
We'll dressed up...
e|-------------------------------------------------------------------------]
B|----------------101010109-9-9--------------------------------------------]
G|-9-9-9-9-9-9-9--9-9-9-9-9-9-9--------------------------------------------]
D|-9-9-9-9-9-9-9--7-7-7-7-7-7-7--------------------------------------------]
A|-7-7-7-7-7-7-7-----------------------------------------------------------]
E|-------------------------------------------------------------------------]
...and it looks like this(you play it one time)
e|-------------------------------------------------------------------------]
B|-------------------------------------------------------------------------]
G|-9-9-9-9-9-9-9-9-7-7-7-7-7-7-7-7-----------------------------------------]
D|-9-9-9-9-9-9-9-9-7-7-7-7-7-7-7-7-7-7-7-7-7-7-7-7-------------------------]
A|-7-7-7-7-7-7-7-7-5-5-5-5-5-5-5-5-7-7-7-7-7-7-7-7-------------------------]
E|---------------------------------5-5-5-5-5-5-5-5-------------------------]

then you play the MAIN PART 4 times
and after that you play these chords...
e|-0----0----0----0--------------------------------------------------------]
B|-0----0----0----0--------------------------------------------------------]
G|-3----3----4----3--------------------------------------------------------]
D|-4----4----5----4--------------------------------------------------------]
A|-4----4----5----4--------------------------------------------------------]
E|-2----2----3----2--------------------------------------------------------]

after that you play these part 
e|-------X-X--------X-X-X-X------------------------------------------------]
B|-------X-X--------X-X-X-X------------------------------------------------]
G|-----2-X-X--------X-X-X-X------------------------------------------------]
D|-2-4-2-X-X--2-2-4-X-X-X-X------------------------------------------------]
A|-2-4-0-X-X--2-2-4-X-X-X-X------------------------------------------------]
E|-0-2---X-X--0-0-2-X-X-X-X------------------------------------------------]

and then comes the solo!(palm mute)
e|-------------------2---5-------------------------------------------------]
B|-----3---2---3-5-3---3---55-2--------------------------------------------]
G|-2-4---4---4-----------------2-------------------------------------------]
D|-------------------------------------------------------------------------]
A|-------------------------------------------------------------------------]
E|-------------------------------------------------------------------------]

Play this one time
e|-------------------------------------------------------------------------]
B|-------------------------------------------------------------------------]
G|-4---4---44-4---4---44-5---5---55-7-7-7-7-7-7-7-7------------------------]
D|-4-2-4-2-44-4-2-4-2-44-5-2-5-2-55-7-7-7-7-7-7-7-7------------------------]
A|-2-2-2-2-22-2-2-2-2-22-3-2-3-2-33-5-5-5-5-5-5-5-5------------------------]
E|---0---0------0---0------0---0-------------------------------------------]

Then you play THE MAIN PART 6 times.

...and then you play this 3 times...
e|-------------------------------------------------------------------------]
B|----------------101010109-9-9--------------------------------------------]
G|-9-9-9-9-9-9-9--9-9-9-9-9-9-9--------------------------------------------]
D|-9-9-9-9-9-9-9--7-7-7-7-7-7-7--------------------------------------------]
A|-7-7-7-7-7-7-7-----------------------------------------------------------]
E|-------------------------------------------------------------------------]
...and play this one time
e|-------------------------------------------------------------------------]
B|-------------------------------------------------------------------------]
G|-9-9-9-9-9-9-9-9-7-7-7-7-7-7-7-7-----------------------------------------]
D|-9-9-9-9-9-9-9-9-7-7-7-7-7-7-7-7-7-7-7-7-7-7-7-7-------------------------]
A|-7-7-7-7-7-7-7-7-5-5-5-5-5-5-5-5-7-7-7-7-7-7-7-7-------------------------]
E|---------------------------------5-5-5-5-5-5-5-5-------------------------]

at last...
e|-------X-X--------X-X-X-X------------------------------------------------]
B|-------X-X--------X-X-X-X------------------------------------------------]
G|-----2-X-X--------X-X-X-X------------------------------------------------]
D|-2-4-2-X-X--2-2-4-X-X-X-X------------------------------------------------]
A|-2-4-0-X-X--2-2-4-X-X-X-X------------------------------------------------]
E|-0-2---X-X--0-0-2-X-X-X-X------------------------------------------------]

You play this part many,many timés, the other guitarist makes crazy, fucked-up sounds
with his guitar and some effects. 
ENJOY! and mail me if you wanna whine or something! deadvin@hotmail.com

Refused are fuckin dead, long live Refused
Suggest correction
What's this?
You can suggest a correction to this tab. Community and Mods will review your correction and vote to approve or reject it.
comments
print report bad tab
2 comments total.
0 reply
Heavens_To_Hell 2,302 wrote on February 14 2008, 03:57 pm

Good tab, but wrong tuning.

Refused worked in Drop D (at least they did for "The Shape Of Punk To Come")

Drop D makes the main riffs a hell of a lot easier to play.

Other than that brilliant tab.

Refused are fukin' dead. Long Live Refused.

0 reply
rolfoslo 1,484 wrote on February 9 2011, 05:47 am

I think the Intro and Verse are something like this:


Intro
e||----------------------------------|----------------------------|
B||----------------------------------|----------------------------|
G||----------------------------------|----------------------------|
D||----------------------------------|----------------------------|
A||-----0-4-5---------------0-5------|-------0-4-5----------------|
E||-0-2-------0-0-2---0-2-3-----0-0--|-2-0-2-------0-2---0-2-5----|

e||----------------------------------|---------------------------------|
B||----------------------------------|---------------------------------|
G||----------------------------------|---------------------------------|
D||----------------------------------|---------------------------------|
A||-----0-4-5---------------0-5------|-------0-4-5-------------0-5-----|
E||-0-2-------0-0-2---0-2-3-----0-0--|-2-0-2-------0-2---0-2-3-----0-0-|

Verse
e||---------------------------------|
B||---------------------------------|
G||---------------------------------|
D||---------------------------------|
A||-------0-4-5-------------0-5-----|
E||-2-0-2-------0-2---0-2-3-----0-0-|

guest
You may want to rate the tab now too:
select rating
Please do not post tabs as comments. Select "correction" instead!