Oops, an error
Loading. Please wait.

This Trust Will Kill Again Bass Tab

266 views 1 this week
no commentswrite comment
1 2 3 4 5
please rate
add to favorites
launch autoscroll
font size
0
reset
guitar tuner
Tab Pro tools
  • play this tab
  • loop segment
  • change instrument
  • show fretboard
  • metronome
Autoscroll
slow
fast
+/-
esc
set tempo
stop
Contributor
Difficulty
intermediate
Artist - Refused
Song - This trust will kill again
Album - Songs to fan the flames of discontent

Standard Tuning

Intro
G|------------------------------------------------|
D|--5~--------------------------------------------|
A|--5~----------------------------------------333-|
E|--3~----333-222-333-000-33-22-333-222-0000------| repeat

verse                    end of verse
G|--------------------|---------------|
D|--------------------|---------(x4)--|
A|-----------------3>-|-------3333----|
E|-3>2>3>0>3>2>3>0>---|-0000----------|

chrous
G|-------------------------|
D|-------------------------|
A|-6-3---3-6-3-55-55-55-55-|
E|-----0-------------------|

then verse, then
G|-------------------------------------|
D|-------------------------------------|
A|---------------------3333----3>---3>-|
E|-3-2-3-0-3-2-3-2-3-0------0>----0>---|

then chrous, then
G|------(x3)-------------|----------------------|-------|
D|-----------------------|----------------------|-------|
A|--------------55-55-55-|-6-3---3-6-3-55-55-55-|--5>---|
E|-3>2>3>0>3>2>----------|-----0----------------|-------|

then

G|--------------------------|
D|--------------------------|
A|----------------------333-|
E|-3-0-3-2-3-0-3-2-0000-----|
comments
We did not receive enough feedback on this tab! Please rate:
print report bad tab
1 2 3 4 5
I want to post or [tab]
guest
You may want to rate the tab now too:
select rating
Please do not post tabs as comments. Select "correction" instead!