Oops, an error
Loading. Please wait.

Voodoo People Tab

922 views 1 this week
no commentswrite comment
1 2 3 4 5
please rate
add to favorites
launch autoscroll
font size
0
reset
how to read this tab
guitar tuner
Tab Pro tools
  • play this tab
  • loop segment
  • change instrument
  • show fretboard
  • metronome
×
Best way to learn
"Voodoo People"
Autoscroll
slow
fast
+/-
esc
set tempo
stop
Contributor
Difficulty
novice
-------------------------------------------------------------------------------
                             Voodoo People - Refused
-------------------------------------------------------------------------------
Tabbed by: me (:
Email:gustavsmith@msn.com

Tuning:Standard

there are some extra strummings in riff A and it's
pretty obvious where they are :)

Main Riff A 0:00 - 0:09 (three times)
e|----------------------------------------|
B|----------------------------------------|
G|----------------------------------------|
D|---5/7-7---5/7-7\5-7---5/7--------------|
A|---5/7-7---5/7-7\5-7---5/7--------------|
E|---3/5-5---3/5-5\3-5---3/5--------------|

Main Riff B
e|----------------------------------------|
B|----------------------------------------|
G|----------------------------------------|
D|---5/7-7---5/7-7\5-7---5/7-7-8----------|
A|---5/7-7---5/7-7\5-7---5/7-7-8-let ring-|
E|---3/5-5---3/5-5\3-5---3/5-5-6----------|

at 0:09 they start alternating between riff A and B 'till 1:09 (starting with B at 0:09)

Riff C 1:09 - 1:34 (don't know the lead guitar here, sorry)
e|---------------|
B|---------------|
G|---------------|
D|---2-----2-2---|
A|---2-----2-2---|
E|---0-----0-0---|

Riff D 1:34 - 1:58
e|---------------------------------------------------|
B|---------------------------------------------------|
G|---------------------------------------------------|
D|-----7-----------------------7---------------------|
A|-------7-7-0-------------------7-7-7--77-8p7-8p7---|
E|---5----------55-6p5-6p5---5-----------------------|

Riff E 1:58 - 2:11
e|---------------------------------------------------|
B|---------------------------------------------------|
G|---------------------------------------------------|
D|-----7-----------------------7---------------------|
A|-------7-7---------------------7-7-7--7-8p7-8p7----|
E|---5-------5--55-6p5-6p5---5-----------------------|


I don't know the solo thingy that starts at 2:11
Riff A and B starts altering again at 2:22

I hope you enjoyed the song, good luck! :)
************************************

| /   slide up
| \   slide down
| h   hammer-on
| p   pull-off
| ~   vibrato
| +   harmonic
| x   Mute note
| b   Bend
| pb  Pre-bend
| br  Bend release
| pbr Pre-bend release
| brb Bend release bend

************************************
comments
We did not receive enough feedback on this tab! Please rate:
print report bad tab
1 2 3 4 5
I want to post or [tab]
guest
You may want to rate the tab now too:
select rating
Please do not post tabs as comments. Select "correction" instead!