Oops, an error
Loading. Please wait.

Get Well Soon tab

version 3
version 3

Whole song

Interactive

337 views 1 this week
no commentswrite comment
1 2 3 4 5
2 more votes to show rating
add to favorites
×
Save as Personal and add changes to this tab that will be seen only by you. Learn more ›
×
You can save this tab as Personal to edit and correct it or add notes. All changes will be seen only by you. Learn more »
launch autoscroll
font size
0
reset
how to read this tab
guitar tuner
edit
Autoscroll
slow
fast
+/-
esc
set tempo
stop
Author
Difficulty
----------------------------------------------------------------------------
                  GET WELL SOON - Reggie And The Full Effect
----------------------------------------------------------------------------

Tabbed by: ZeioMan
Email: TheJohnTravoltaExperience (at) hotmail.com

After trying the other tabs for this song, I decided they weren't quite correct on their
parts, so I've tabbed it out. You can find the keyboard intro and chorus parts on other
and I may someday try to figure out the verse parts. But anyways, this is my first tab, 
it seems pretty correct to me, so enjoy!

Tuning: Can be played in Standard (EADGBe), but it is easier in Drop-D (DADGBe)

Intro
e|---------------------------------------|
B|---------------------------------------|
G|---------------------------------------|
D|6~-------------------------------------|
A|6~-------------------------------------|
D|6~-------------------------------------|


Chorus Pt. 1
e|--------------------------------------------------|
B|--------------------------------------------------|
G|--------------------------------------------------|
D|2222222222222222-1111111111111111-66666666--------|
A|2222222222222222-1111111111111111-66666666--------|
D|2222222222222222-1111111111111111-66666666--------|

Chorus Pt. 2 (Mute the strings after playing the chords. "." Represents the rhythm.
to the song to catch my drift.)
e|--------------------------------------------------|
B|--------------------------------------------------|
G|--------------------------------------------------|
D|22-22-22-22-2222-1111-1111-1111-66-6666-----------|
A|22-22-22-22-2222-1111-1111-1111-66-6666-----------|
D|22-22-22-22-2222-1111-1111-1111-66-6666-----------|
    .  .  .  .         .    .    .  .

Verse ("You've got a lot...")
e|------------------------------------------------------|
B|------------------------------------------------------|
G|------------------------------------------------------|
D|------------------------------------------------------|
A|6666666666666666-11111111111111111111111111111111-----|
D|6666666666666666-11111111111111111111111111111111-----|
 [-------------------Palm Mute--------------------------|

Pre-Chorus Pt. 1 ("They say we won't...")
e|----------------------------------------------------------------------|
B|----------------------------------------------------------------------|
G|----------------------------------------------------------------------|
D|----------------------------------------------------------------------|
A|14141414141414141414141414141414-16161616161616161616161616161616-----|
D|14141414141414141414141414141414-16161616161616161616161616161616-----|
 [---------------------------Palm Mute----------------------------------|

Pre-Chorus Pt. 2
e|------------------------------------------------------|
B|------------------------------------------------------|
G|------------------------------------------------------|
D|------------------------------------------------------|
A|14141414141414141414141414141414-4444444444444444-----|
D|14141414141414141414141414141414-4444444444444444-----|
 [------------Palm Mute---------------------------------|[Gradually Release]

Bridge
e|---------------------------------|
B|---------------------------------|
G|---------------------------------|
D|6~--8~--9~--4~--2~----/11~-------|
A|6~--8~--9~--4~--2~----/11~-------|
D|6~--8~--9~--4~--2~----/11~-------|

Bridge Ending
e|-----------------------|
B|-----------------------|
G|-----------------------|
D|2~--4~-----------------|
A|2~--4~-----------------|
D|2~--4~-----------------|

Outro
e|----------------------------|
B|----------------------------|
G|----------------------------|
D|2~--/11~--\6~--\2~----------|
A|2~--/11~--\6~--\2~----------|
D|2~--/11~--\6~--\2~----------|

And now, the order...

Intro
Chorus Pt. 1 (x2)
Chorus Pt. 2 (x2)
Verse (x2)
Pre-Chorus Pt. 1
Pre-Chorus Pt. 2
Chorus Pt. 1 (x2)
Chorus Pt. 2 (x2)
Verse (x2)
Pre-Chorus Pt. 1
Pre-Chorus Pt. 2
Chorus Pt. 1 (x2)
Chorus Pt. 2 (x2)
Bridge (x2)
Bridge Ending
Chorus Pt. 2 (Without the muting) (x2)
Chorus Pt. 1 (Play your heart out)(x2)
Outro

Hope my tab made enough sense and isn't too completely long for such an easy (yet
song. Stay frosty!

| /  slide up
| \  slide down
| h  hammer-on
| p  pull-off
| ~  vibrato
| +  harmonic
| x  Mute note
============================================================================

            
            
Suggest correction
Creating personal tab
Creating personal tab
You can edit any tab online and save it as your Personal.

You can edit, replace or remove any tab part or add personal notes – all changes will be seen only by you.

Personal tabs can be accessed anytime from any device, even offline.
Learn more »
Give kudos to tab author, rate the tab!
1 2 3 4 5
comments
print report bad tab
guest
You may want to rate the tab now too:
select rating
Wanna post a correction for this tab? Suggest correction