Oops, an error
Loading. Please wait.

Bobbing For Apples ukulele

821 views 3 this week
no commentswrite comment
1 2 3 4 5
3 more votes to show rating
add to favorites
×
Save as Personal and add changes to this tab that will be seen only by you. Learn more ›
×
You can save this tab as Personal to edit and correct it or add notes. All changes will be seen only by you. Learn more »
launch autoscroll
font size
0
reset
transpose
0
reset
simplify chords
display chords
guitar tuner
edit
Autoscroll
slow
fast
+/-
esc
set tempo
stop
Strumming
There is no strumming pattern for this song yet. and get +5 IQ
The other versions had the right chords, but were'nt in the right order and 
there was some incorrect stuff. I've watched Regina's live videos and I'm pretty 
sure this is 100% correct. 
Thanks to Swander for the chord names.

When you play, play the root string first and then play the rest of the chord. 

Chords:

   G1  C1  Am  C2  C2  E2  F2  F#2

E:---------0------------------------------------|
B:-0---0---0--------0---0---0----0--------------|
G:-0---0---0---0----5---2---3----4--------------|
D:-0---2---2---5----4---1---2----3--------------|
A:-2---3---2---4----5---2---3----4--------------|
E:-3-------0---5--------------------------------|


G1         G1      G1    G1

Bobbin' for apples in Somolia 

   C1          C1     C1        C1
The man with the iron curtian is followin ya

G1
No one's 

e|-------------|
B|-------------|
G|-------------|
D|-------------|
A|-------------|
E|---3---2---0-|    Am Am

Coming for         teatime

        C2   C2    C2 C2
Except my own holy goast

G1              G1           C1        G1
You're somewhere far probably drinkin a whisky


   G1          G1          C1
I'm datin' Jack Daniels and Calebs with 

e|-------------|
B|-------------|
G|-------------|
D|-------------|
A|-------------|
E|---3---2---0-|    Am Am

  Miss   Nico-       tine


            C2  C2     C2    C2     
Nacho's with cocoa, to each's own

C2    C2        E2    E2
Lovely people, lovely places 

F2             F2            F#2         F#2
I can't remember names and I can't remember faces



      e|-------------|
      B|-------------|
      G|-------------| 
      D|-------------|
      A|-------------|
      E|---3---2---0-|    Am Am              A2 A2  D2 D2
C2
Some      one next doors fucking to ones of my songs


C2        C2             F2       C2  
Hey light fixture you are much too bright

C2       C2        F2             C2
Won't you stay with me through the night

e|-------------|
B|-------------|
G|-------------|
D|-------------|
A|-------------|  
E|---3---2---0-|    Am       Am         A2   A2       D2  D2  
Just grab a pillow tight and wait for the dizziness to pass

C2      C2       F2       C2
Rock and roll you ate my soul

C2            C2               F2          C2
You sucked dry my bones but you spit out my mole

e|-------------|
B|-------------|
G|-------------|
D|-------------|
A|-------------|  Em Em
E|---3---2---0-|
I'll always opt         


C2              C2           C2     C2
To fall down these stairs in the end

C2       C2       F2    C2
You're so jealous I'm so lonely

C2          C2                  F2     C2
You'll never forgive me but I'll love you always

e|-------------|
B|-------------|
G|-------------|
D|-------------|
A|-------------|  Em Em
E|---3---2---0-|
I'll always opt         


C2              C2           C2     C2
To fall down these stairs in the end

G2  (let it ring)
You're so jealous

B2 (let it ring)
I'm so lonely

C2 (let it ring)
You'll never forgive me

C#2 (let it ring)
But I'll love you always

                  Am   Am
e|-----------------0---0------|
B|-----------------0---0------|
G|-----------------0---2------|
D|-----------------2---2------|
A|-----------------2---2------|
E|--3---3---2--0---0---0---3--|
Some one next doors fucking to one of my songs

                  Am   Am
e|-----------------0---0------|
B|-----------------0---0------|
G|-----------------0---2------|
D|-----------------2---2------|
A|-----------------2---2------|
E|--3---3---2--0---0---0---3--|
Some one next doors fucking to one of my songs

                  Am   Am
e|-----------------0---0---|
B|-----------------0---0---|
G|-----------------0---2---|
D|-----------------2---2---|
A|-----------------2---2---|
E|--3---3---2--0---0---0---|
Some one next doors fucking to one of -

C2 (let it ring)
My

       F#2
One of my

  G2       C2    G2   C2  (switch between G2 and C2 depending on how long)
So  oh oh oh oh oh oh oh oh oh oh oh oh oh oh oh ongs
 

                  Am   Am
e|-----------------0---0------|
B|-----------------0---0------|
G|-----------------0---2------|
D|-----------------2---2------|
A|-----------------2---2------|
E|--3---3---2--0---0---0---3--|
Some one next doors fucking to one of my songs


            
            
Suggest correction
Creating personal tab
Creating personal tab
You can edit any tab online and save it as your Personal.

You can edit, replace or remove any tab part or add personal notes – all changes will be seen only by you.

Personal tabs can be accessed anytime from any device, even offline.
Learn more »
Give kudos to tab author, rate the tab!
1 2 3 4 5
comments
print report bad tab
guest
Wanna post a correction for this tab? Suggest correction