Oops, an error
Loading. Please wait.

Dance Anthem Of The 80S chords

version 1
version 1

Whole song

2,014 views 21 this week
no commentswrite comment
1 2 3 4 5
3 more votes to show rating
add to favorites
×
Save as Personal and add changes to this tab that will be seen only by you. Learn more ›
×
You can save this tab as Personal to edit and correct it or add notes. All changes will be seen only by you. Learn more »
launch autoscroll
font size
0
reset
transpose
0
reset
simplify chords
display chords
guitar tuner
edit
Autoscroll
slow
fast
+/-
esc
set tempo
stop
Strumming
There is no strumming pattern for this song yet. and get +5 IQ
God I love Regina.

Capo on ONE

Chords: E A D G B e
C5      x 3 5 5 x x
G5      3 5 5 x x x
Bb5     x 1 3 3 x x
F5      1 3 3 x x x
Ab5     4 6 6 x x x (if this chord sounds odd put in the Bb5 instead)
C/E     x x 2 0 1 0
C/G     x x x 0 1 0 
C/F     x x 3 0 1 x
F       1 3 3 2 1 1
C       x 3 2 0 1 0
Dm      x x 0 2 3 1
Bb      x 1 3 3 3 1
(no chord - don't play)
(1)          *  

* Whenever it says (1), do the intro tab

[Intro tab]
  N.C.
e|-----------------------------------------------------|
B|-1--1-1--1-1-----------------------------------------|
G|--------------0--0-0--0-0--3--3-3--3-3---------------|
D|----------------------------------------3--3-3--3-3--|
A|-----------------------------------------------------|
E|-----------------------------------------------------|

[Verse]
(1)
You are so sweet
(1)
Dancing to that beat
(1)
There's a meat market down the street
(1)
The boys and the girls watch each other eat

C5  G5     Ab5        F5
You are so sweet, so sweet
 C5          G5            Ab5         F5
Dancing and moving to that beat, that beat
C5             G5              Ab5
There's a meat market down the street
C5         G5             Ab5         F5
The boys and girls watch each other eat
     C5                      G5
The boys and the girls watch each other eat
           Ab5    
When they really just wanna watch each other

[Chorus]
C5    G5  Bb5  F5
Sle - e - e - ep
C5                  G5
They want to watch, to watch each other
Bb5           F5
Sleep, sleep sleep
C5    G5  Bb5  F5
Sle - e - e - ep
C5                  G5
They want to watch, to watch each other
Bb5           F5
Sleep, sleep sleep


C/E  C/G  C/F
You  are  so sweet
C/E  C/G  C/F
You  are  so sweet

[Instrumental - skip the tab and just do chords if you want]

   C5        G5  Bb5      F5     C5        G5  Bb5      F5
e|-----------------------------|-----------------------------|
B|-0---3-0-3-1-------3-0-3-1---|-0---3-0-3-1-------3-0-3-1---|
G|---------------3-------------|---------------3-------------|
D|-----------------------------|-----------------------------|
A|-----------------------------|-----------------------------|
E|-----------------------------|-----------------------------|

   C5        G5  Bb5      F5     C5        G5  Bb5      F5
e|-----------------------------|----------------------------1--|
B|-0---3-0-3-1-------3-0-3-1---|-0---3-0-3-1-------3-0-3-1-----|
G|---------------3-------------|---------------3---------------|
D|-----------------------------|-------------------------------|
A|-----------------------------|-------------------------------|
E|-----------------------------|-------------------------------|

   C5      G5              Bb5      F5     
e|-0---3---1--0----------|-1---0-------------------------|
B|--------------3--1-----|-----------1-------------------|
G|-----------------------|-------------------------------|
D|-----------------------|-------------------------------|
A|-----------------------|-------------------------------|
E|-----------------------|-------------------------------|


   C5      G5              Bb5      F5     
e|-0---3---1--0----------|-1---0-------------------------|
B|--------------3--1-----|-----------1-------------------|
G|-----------------------|-------------------------------|
D|-----------------------|-------------------------------|
A|-----------------------|-------------------------------|
E|-----------------------|-------------------------------|

[Bridge]
F           C
I'm walking through the city
Dm            Bb         
Like a drunk, but not
F               C
With my slip showing a little
Dm            Bb  
Like a drunk, but not
F         C
And I am one of your people
Dm                 Bb  
But the cars don't stop
F           C
And I am one of your people
Dm                 Bb  
But the cars don't stop
F                             C
And it's been a long time since before I've been touched
Dm                 Bb  
Now I'm getting touched all the time
F               C
And it's only a matter of whom
Dm                 Bb  
And it's only a matter of when

F               C
An addiction to hands and feet-
Dm                    Bb  
There's a meat market down the street
F                           C
The boys and girls watch each other eat
          Dm                    Bb  
When they really just wanna watch each other sleep
F               C
An addiction to hands and feet-
Dm                   Bb  
There's a meat market down the street
F                           C
The boys and girls watch each other eat
(no chord)
When they really just wanna watch each other


[Chorus]
(1)
Sle - e - e - ep
(1)
They want to watch, to watch each other
(no chord)
Sleep, sleep sleep
C5    G5  Bb5  F5
Sle - e - e - ep
C5                  G5
They want to watch, to watch each other
Bb5           F5
Sleep, sleep sleep

[Outro]
C5                  G5
They want to watch, to watch each other
Bb5                      F5
They want to be watched, they want to be washed
C5                       G5
They want to be touched, to touch each other
Bb5                      F5
They want to sleep, they want to be slept

(Repeat until fade...) 
Suggest correction
Creating personal tab
Creating personal tab
You can edit any tab online and save it as your Personal.

You can edit, replace or remove any tab part or add personal notes – all changes will be seen only by you.

Personal tabs can be accessed anytime from any device, even offline.
Learn more »
Give kudos to tab author, rate the tab!
1 2 3 4 5
comments
print report bad tab
guest
You may want to rate the tab now too:
select rating
Wanna post a correction for this tab? Suggest correction