Oops, an error
Loading. Please wait.

December Tab

2,729 views 3 this week
no commentswrite comment
1 2 3 4 5
excellent!
x 3
add to favorites
launch autoscroll
font size
0
reset
how to read this tab
guitar tuner
Tab Pro tools
  • play this tab
  • loop segment
  • change instrument
  • show fretboard
  • metronome
×
Best way to learn
"December"
Autoscroll
slow
fast
+/-
esc
set tempo
stop
Contributor
e|---------------------------------------------------------------------------|
B|---------------------------------------------------------------------------|
G|---------------------------------------------------------------------------|
D|--02020--02020--02020---02020--02020--02020--02020--02020--02020--02020----|
A|-2------0------2-------0------2------0--------------------2------0---------|
E|--------------------------------------------4------0------2------0---------|
                                 December starts on...      Turn your room...
e|---------------------------------------------------------------------------|
B|---------------------------------------------------------------------------|
G|---------------------------------------------------------------------------|
D|--02020--02020-00000000000000000000000000000000-------02020--02020--02020--|
A|-2------2------2---0---2-2---2---0---2-2-------4444--2------0--------------|
E|-4------0------2---0---4-0---2---0---4-0---------------------------4-------|
                 Rumors have started...                Come on and...
e|---------------------------------------------------------------------------|
B|---------------------------------------------------------------------------|
G|---------------------------------------------------------------------------|
D|--02020--02020--02020--02020--02020--02020--02020--02020--02020--02020-----|
A|--------2------0--------------------2------0------2------2------2----------|
E|-0--------------------4------0------2------0------4------0------2----------|
          Can't you see....           Come on and...              Can't you...
e|---------------------------------------------------------------------------|
B|---------------------------------------------------------------------------|
G|---------------------------------------------------------------------------|
D|--02020--02020--02020-000000000000000000000000000000000000000000000000-----|
A|-0------2------2-----------------------------------------------------------|
E|-0------4------0------2---0---4-0-----2---0---4-0------2---0---4-0---------|
                        We are not evacuating... (repeat until end)


december starts on sunday next sunday
won't you feel happier then?
turn your room upside down
turn your down upside
rumours have started that you are in love again
rumours that are completely unsubstantiated

come on and say you're sorry
real sorry for the trouble that you caused
can't you see all this love?
can't you see all this love?
come on and say you're sorry
real sorry for the trouble that you caused
can't you see all this love?
can't you see all this love?

we are not evacuating this house
we don't believe in you and your wrecking crew
we are not evacuating this house
we don't believe in you and your wrecking crew
we don't believe in you and your wrecking crew
we don't believe in you, we don't believe in you
we don't believe in you, we don't believe in you
we don't believe in you, we don't believe in you
comments
We did not receive enough feedback on this tab! Please rate:
print report bad tab
1 2 3 4 5
I want to post or [tab]
guest
You may want to rate the tab now too:
select rating
Please do not post tabs as comments. Select "correction" instead!