Oops, an error
Loading. Please wait.

Eet tab

1,399 views 3 this week
no commentswrite comment
1 2 3 4 5
2 more votes to show rating
add to favorites
×
Save as Personal and add changes to this tab that will be seen only by you. Learn more ›
×
You can save this tab as Personal to edit and correct it or add notes. All changes will be seen only by you. Learn more »
launch autoscroll
font size
0
reset
how to read this tab
guitar tuner
edit
Autoscroll
slow
fast
+/-
esc
set tempo
stop
-------------------------------------------------------------------------------
                             Eet - Regina Spektor
-------------------------------------------------------------------------------
Tabbed by:ramblingman13
E-mail:ramblingman13@yahoo.co.uk

Tuning:Standard (Capo 1)

Intro+Verses: Play the below part of the tab TWICE without singing for the intro and
then repeat whilst singing till you reach the chorus.
 Am               G               C               F
e|-----------------------------------------------------------------------------|
B|----1-----1---1-----0-----0---0-----1-----1---1-----1-----1---1--------------|
G|----2-----2---2-----0-----0---0-----0-----0---0-----2-----2---2--------------|
D|-----------------------------------------------------------------------------|
A|0-------0---0-------------------3-------3---3---3-------3---3----------------|
E|----------------3-------3---3------------------------------------------------|

Chorus: Repeat TWICE.
 F                C               G
e|---------------------------------------------------------------------------|
B|----1-----1---1-----1-----1---1-----0-----0---0-----0-----0----------------|
G|----2-----2---2-----0-----0---0-----0-----0---0-----0-----0----------------|
D|---------------------------------------------------------------------------|
A|3-------3---3---3-------3---3----------------------------------------------|
E|--------------------------------3-------3---3---3-------3------------------|

Instrumental: Repeat TWICE.
 C
e|---------------------------------------------------------------------------|
B|----1-----1---1-----1-----1---1-----1-----1---1-----1-----1---1------------|
G|----0-----0---0-----0-----0---0-----0-----0---0-----0-----0---0------------|
D|---------------------------------------------------------------------------|
A|3-------3---3---3-------3---3---3-------3---3---3-------3---3--------------|
E|---------------------------------------------------------------------------|
 F
e|------------------------------------------------------------------------------|
B|----1-----1---1-----1-----1---1-----1-----1---1-----1-----1---1---------------|
G|----2-----2---2-----2-----2---2-----2-----2---2-----2-----2---2---------------|
D|------------------------------------------------------------------------------|
A|3-------3---3---3-------3---3---3-------3---3---3-------3---3---3-------------|
E|------------------------------------------------------------------------------|

LYRICS:

It's like forgetting the words to your favorite song
You can't believe it
You were always singing along
It was so easy and the words so sweet
You can't remember
You try to feel the beat

Eeeeeeeet, eet, eet, eet
Eeeeeeeet, eet, eet, eet

You spent half of your life trying to fall behind
You're using your headphones to drown out your mind
It was so easy, and the words so sweet
You can't remember
You try to move your feet
Eeeeeeeet, eet, eet, eet
Eeeeeeeet, eet, eet, eet

Someone's deciding whether or not to steal
He opens the window just to feel the chill
He hears that outside a small boy just starting to cry
'Cause it's his turn but his brother won't let him try

It's like forgetting the words to your favorite song
You can't believe it
You were always singing along
It was so easy and the words so sweet
You can't remember
You try to move your feet

It was so easy and the words so sweet
You can't remember, you try to feel the beat

            
            
Suggest correction
Creating personal tab
Creating personal tab
You can edit any tab online and save it as your Personal.

You can edit, replace or remove any tab part or add personal notes – all changes will be seen only by you.

Personal tabs can be accessed anytime from any device, even offline.
Learn more »
Give kudos to tab author, rate the tab!
1 2 3 4 5
comments
print report bad tab
guest
You may want to rate the tab now too:
select rating
Wanna post a correction for this tab? Suggest correction