Oops, an error
Loading. Please wait.

Fidelity Bass Tab

version 1
version 1

Whole song

Interactive

5,292 views 3 this week
1 commentread comment
1 2 3 4 5
excellent!
x 2
add to favorites
launch autoscroll
font size
0
reset
guitar tuner
Tab Pro tools
  • play this tab
  • loop segment
  • change instrument
  • show fretboard
  • metronome
×
Best way to learn
"Fidelity"
Autoscroll
slow
fast
+/-
esc
set tempo
stop
Difficulty
novice
I kinda made this up, but it sounds good...

G-----------------------------------------------------------------|
D-----------------------------------------------------------------|
A-3-3-3-3-3-3-3-3-----------------3-3-3-3-3-3-3-3-----------------|
E-----------------1-1-1-1-1-1-1-1-----------------1-1-1-1-1-1-1-1-|

G-----------------------------------------------------------------|
D-----------------------------------------------------------------|
A-5-5-5-5-5-5-5-5-1-1-1-1-1-1-1-1-----------------3-3-3-3-3-3-3-3-|
E---------------------------------1-1-1-1-1-1-1-1-----------------|

G-----------------------------------------------------------------|
D-----------------------------------------------------------------|
A-----------------1-1-1-1-1-1-1-1-1-1-1-1-1-1-1-1-5-5-5-5-5-5-5-5-|
E-1-1-1-1-1-1-1-1-------------------------------------------------|

G------------------------------------------------------------------|
D------------------------------------------------------------------|
A-3-3-3-3-3-3-3-3------------------1-1-1-1-1-1-1-1-1-1-1-1-1-1-1-1-|
E-----------------1-1-1-1-1-1-1-1----------------------------------|

G------------------------------------------------------------------|
D------------------------------------------------------------------|
A-5-5-5-5-5-5-5-5-3-3-3-3-3-3-3-3-------------1-1-3-3-3-3-3-3-1----|
E---------------------------------1-1-1-1-1-1----------------------|
REPEAT LAST PART

G------------------------------------------------------------------|
D------------------------------------------------------------------|
A-----------------1-1-1-1-1-1-1-1-----------------3-3-3-3-3-3-3-3--|
E-1-1-1-1-1-1-1-1-----------------1-1-1-1-1-1-1-1------------------|

G------------------------------------------------------------------|
D------------------------------------------------------------------|
A-----------------1-1-1-1-1-1-1-1-5-5-5-5-5-5-5-5-3-3-3-3-3-3-3-3--|
E-1-1-1-1-1-1-1-1--------------------------------------------------|


G------------------------------------------------------------------|
D------------------------------------------------------------------|
A-----------------1-1-1-1-1-1-1-1-5-5-5-5-5-5-5-5-3-3-3-3-3-3-3-3--|
E-1-1-1-1-1-1-1-1--------------------------------------------------|

G------------------------------------------------------------------|
D------------------------------------------------------------------|
A-----------------1-1-1-1-1-1-1-1-5-5-5-5-5-5-5-5-3-3-3-3-3-3-3-3--|
E-1-1-1-1-1-1-1-1--------------------------------------------------|

G-------------------------------------------------------------------|
D-------------------------------------------------------------------|
A-------------1-1-3-3-3-3-3-3-1-------------------------------------|
E-1-1-1-1-1-1-------------------------------------------------------|

G-------------------------------------------------------------------|
D-------------------------------------------------------------------|
A-5-5-5-5-5-5-5-5-3-3-3-3-3-3-3-3---------------------2-2-----------|
E---------------------------------3-3-3-3-3-3-3-3-1-1-----2-2-------|

G--------------------------------------------------------------------|
D--------------------------------------------------------------------|
A-3-3-3-3-3-3-3-3----------------------------------------------------|
E-----------------2-2-5-5-3-3----------------------------------------|

Its long, but very easy, just listen to the song for timing.

-CM-
comments
We did not receive enough feedback on this tab! Please rate:
print report bad tab
1 2 3 4 5
1 comment total.
0 reply
Apollo65 wrote on October 12 2008, 07:34 pm

this is really great and pretty much fits the song. you might want to specify on the verses and chorus (where they bein and end and stuff) just so people don't get confused about the 'hea-rt' part :D great job

I want to post or [tab]
guest
You may want to rate the tab now too:
select rating
Please do not post tabs as comments. Select "correction" instead!