Oops, an error
Loading. Please wait.

Folding Chair Bass Tab

version 1
version 1

Whole song

Interactive

2,673 views 6 this week
no commentswrite comment
1 2 3 4 5
please rate
add to favorites
launch autoscroll
font size
0
reset
guitar tuner
Autoscroll
slow
fast
+/-
esc
set tempo
stop
Help us to improve Ultimate-Guitar.com Take our survey!
×
Author
Difficulty
vir2k5 120
novice
                                      Folding Chair                                       


                                                                            Regina Spektor
Track 1



     Third beat after piano intro                             
                                       Q    Q    Q    Q     6x
G||-------------------------------||------------------------||
D||-------------------------------||*----------------------*||
A||-------------------------------||*--3-------------------*||
E||-------------------------------||--------5----1----3-----||


   E  S S E  S S E  S S E  S S  8x  S. S S. S. S S. S. S S. S. S S.  
--------------------------------||----------------------------------|
*-------5----------------------*||----------------------------------|
*--3--7--------7------3------5-*||----------------------------------|
----------5--8---1--5---3--7----||--1--1-1--3--3-3--5--5-5--8--8-8--|


  S. S S. S. S S. H           S. S S. S. S S. S. S S. S. S S.  
---------------------------|----------------------------------|
---------------------------|----------------------------------|
---------------------------|----------------------------------|
--1--1-1--3--3-3--5--------|--1--1-1--3--3-3--5--5-5--8--8-8--|


  S. S S. S. S S. H             Q    Q    Q    Q     4x   E  S S E  S S E  S S E  S S  4x
---------------------------||------------------------||--------------------------------||
---------------------------||*----------------------*||*-------5----------------------*||
---------------------------||*--3-------------------*||*--3--7--------7------3------5-*||
--1--1-1--3--3-3--8--------||--------5----1----3-----||----------5--8---1--5---3--7----||


  S. S S. S. S S. S. S S. S. S S.    S. S S. S. S S. H         
----------------------------------|---------------------------|
----------------------------------|---------------------------|
----------------------------------|---------------------------|
--1--1-1--3--3-3--5--5-5--8--8-8--|--1--1-1--3--3-3--5--------|


  S. S S. S. S S. S. S S. S. S S.    S. S S. S. S S. H             Q    Q    Q    Q     8x
----------------------------------|---------------------------||------------------------||
----------------------------------|---------------------------||*----------------------*||
----------------------------------|---------------------------||*--3-------------------*||
--1--1-1--3--3-3--5--5-5--8--8-8--|--1--1-1--3--3-3--8--------||--------5----1----3-----||


   E  S S E  S S E  S S E  S S  4x  S. S S. S. S S. S. S S. S. S S.  
--------------------------------||----------------------------------|
*-------5----------------------*||----------------------------------|
*--3--7--------7------3------5-*||----------------------------------|
----------5--8---1--5---3--7----||--1--1-1--3--3-3--5--5-5--8--8-8--|


  S. S S. S. S S. H           S. S S. S. S S. S. S S. S. S S.  
---------------------------|----------------------------------|
---------------------------|----------------------------------|
---------------------------|----------------------------------|
--1--1-1--3--3-3--5--------|--1--1-1--3--3-3--5--5-5--8--8-8--|


  S. S S. S. S S. H          
---------------------------||
---------------------------||
---------------------------||
--1--1-1--3--3-3--8--------||




Duration Legend
---------------
W - whole
H - half
Q - quarter
E - 8th
S - 16th
T - 32nd
X - 64th
. - note dotted
|-n-|  - n-tuplets


Tablature Legend
----------------
L - tied note
x - dead note
g - grace note
(n) - ghost note
> - accentuded note
NH - natural harmonic
AH - artificial harmonic
TH - tapped harmonic
SH - semi harmonic
PH - pitch harmonic
h - hammer on
p - pull off
b - bend
br - bendRelease
pb - preBend
pbr - preBendRelease
brb - bendReleaseBend
\n/ - tremolo bar dip
\n - tremolo bar dive
-/n - tremolo bar Release up
/n\ - tremolo bar inverted dip
/n - tremolo bar return
-\n - tremolo bar Release down
S - shift slide
s - legato slide
/ -  slide into from below or out of upwards
\ -  slide into from above or out of downwards
~ - vibrato
W - wide vibrato
tr - trill
TP - tremolo picking
T - tapping
S - slap
P - pop
< - fade in
^ - brush up
v - brush down
Suggest correction
What's this?
You can suggest a correction to this tab. Community and Mods will review your correction and vote to approve or reject it.
comments
We did not receive enough feedback on this tab! Please rate:
print report bad tab
1 2 3 4 5
guest
You may want to rate the tab now too:
select rating
Please do not post tabs as comments. Select "correction" instead!