Oops, an error
Loading. Please wait.

Lady Tab

4,975 views 1 this week
1 commentread comment
1 2 3 4 5
1 last vote to show rating
add to favorites
launch autoscroll
font size
0
reset
how to read this tab
guitar tuner
Autoscroll
slow
fast
+/-
esc
set tempo
stop
Help us to improve Ultimate-Guitar.com Take our survey!
×
Difficulty
novice
Tabbed by: retrofunked
Email: em.mles@yahoo.com

Tuning: standard

The intro has no meter, listen to Regina's recording for the patterns. Happy playing :]


e|---------------------------------------------------|
B|---------------------------------------------------|
G|---------------------------------------------------|
D|---------------------------------------------------|
A|--3------------------------------------------------|
E|------------------3------4----------------1--------|
  Lady sing the blues so well   as if she mean it


e|-------------------------------------------------------------------------|
B|----------------------------------1----------------------------0---------|
G|------------1------------------------------------------------------------|
D|-------------------------------------------------------------------------|
A|-------------------------------------------------------------------------|
E|------------1---------------------1----------------------------1---------|
  as if it's hell down here in the smoke filled world where the jokes are cold

e|-------------------------------------------------------------------------|
B|-------------------------------------------------------------------------|
G|---------------------1---------------------------0-----------------------|
D|-------------------------------------------------------------------------|
A|-------------------------------------------------------------------------|
E|---------------------1---------------------------3-----------------------|
  they don't laugh at jokes,   they laugh at tragedies

e|---------------------------------------------------|
B|---------------------------------------------------|
G|---------------------------------------------------|
D|-5-------------------------------------------------|
A|-3-------------------------------------------------|
E|---------------3--4-----------------1--------------|
  Corner street societies,    they believe her,

e|-------------------------------------------------------------------------|
B|----------------------1---------0----------------------------------------|
G|------1-----------------------------------------------------0------------|
D|-------------------------------------------------------------------------|
A|-------------------------------------------------------------------------|
E|------1---------------1---------1---------------------------3------------|
  They never leave her while she sings, she makes them feel things



The rest of the song will be up eventually, I promise!

Tah,
emm
Suggest correction
Give kudos to tab author, rate the tab!
1 2 3 4 5
comments
print report bad tab
1 comment total.
0 reply
birdman267 142 Apr 08, 2011 06:32 PM

Please do more:)

guest
You may want to rate the tab now too:
select rating
Wanna post a correction for this tab? Suggest correction