Oops, an error
Loading. Please wait.

One More Time With Feeling Bass Tab

388 views 3 this week
no commentswrite comment
1 2 3 4 5
please rate
add to favorites
launch autoscroll
font size
0
reset
guitar tuner
Tab Pro tools
  • play this tab
  • loop segment
  • change instrument
  • show fretboard
  • metronome
Autoscroll
slow
fast
+/-
esc
set tempo
stop
Contributor
Tabbed By David Gonzales

"Everyone takes turns..." (2x)
|----------------------|
|----------------------|
|------------5----5----|
|--5----8--------------|

"And the misery..."
|--------------------------------------------------|
|--------------------------------------------------|
|--3--3--3--3--2--2--2--2--0--0--0--0--------------|
|--------------------------------------4--4--4--4--|

|----------------------|
|----------------------|
|-------5---------5----|
|--1---------1---------|

"Hold on..." (2x)
|----------------------------------------------|
|-------5----------9---------------------------|
|--3-------3--7-------7-------7----------3--0--|
|------------------------5-------5--1----------|

"Say it in your mind..."
|----------------------|-------------------|
|----------------------|-------------------|
|--3----7--------------|----5---------5----|
|------------5----1----|---------1---------|
                            (^upbeats^)

Doo-ee-oo break
|------------------------------------|
|------------------------------------|
|------------------------------------|
|------------1--1--1--1--1--1--1--1--|
            (doo-ee-oo-ee-oo-ee-oo...)

|---------------------------------------------------|
|---------------------------------------------------|
|--3--3--3--5--7--7--10--7--------------------------|
|---------------------------1--1--1--1--1--1--0--0--|

|--------------------------|----------------------------|
|--------------------------|----------------------------|
|--5--5--5--5--9--9--9--9--|--9----8----7----5----3-----|
|--------------------------|----------------------------|

|---------------------------|
|---------------------------|
|----3----------------------|
|-------0--3---5-3---5-3----|

(2:25)
|--------------------------------------------------|
|--------------------------------------------------|
|--3--3--3--3--2--2--2--2--0--0--0--0--------------|
|--------------------------------------4--4--4--4--|

|----------------------|
|----------------------|
|-------5---------5----|
|--1---------1---------|

"Hold on..." (2x)
|----------------------------------------------|
|-------5----------9---------------------------|
|--3-------3--7-------7-------7----------3--0--|
|------------------------5-------5--1----------|

"Say it in your mind..."
|----------------------|
|----------------------|
|--3----7--------------|
|------------5----1----|

"This is why we fight..." (2x)
|------------------------------------------|
|--5-------9-------------------------------|
|-----3-------7----------------------------|
|------------------5--5--5--5--1--1--1--1--|

Doo-ee-oo break outro 
|------------------------------------|
|------------------------------------|
|------------------------------------|
|------------1--1--1--1--1--1--1--1--|
            (doo-ee-oo-ee-oo-ee-oo...)

|---------------------------------------------------|
|---------------------------------------------------|
|--3--3--3--5--7--7--10--7--------------------------|
|---------------------------1--1--1--1--1--1--0--0--|

|--------------------------|----------------------------|
|--------------------------|----------------------------|
|--5--5--5--5--9--9--9--9--|--9----8----7----5----3-----|
|--------------------------|----------------------------|
comments
We did not receive enough feedback on this tab! Please rate:
print report bad tab
1 2 3 4 5
I want to post or [tab]
guest
You may want to rate the tab now too:
select rating
Please do not post tabs as comments. Select "correction" instead!