Oops, an error
Loading. Please wait.

The Call Tab

version 1
version 1

Whole song

Interactive

48,143 views 33 this week
no commentswrite comment
1 2 3 4 5
accurate
x 6
add to favorites
launch autoscroll
font size
0
reset
how to read this tab
guitar tuner
Tab Pro tools
  • play this tab
  • loop segment
  • change instrument
  • show fretboard
  • metronome
×
Best way to learn
"The Call"
Autoscroll
slow
fast
+/-
esc
set tempo
stop
Difficulty
novice
The Call-Regina Spektor
Tabbed by Suzi Berthiaume

Standard tuning
Capo on 3rd fret


It started out...
e-------------------------------------------------------------------------|
B-------0--------------0---------------0--------------0-------------------|
G---0-------0------0-------0-------0-------0------0-------0---------------|
D-----0---0---0------0---0---0-------2---2---2------2---2---2-------------|
A-------------------------------2---------------3-------------------------|
E-3--------------2--------------------------------------------------------|
Play 2x


But then that word...
e--------------------------------------------------------------------|
B-------2--------------2---------------0--------------0--------------|
G---0-------0------0-------0-------0-------0------0-------0----------|
D-----0---0---0------0---0---0-------0---0---0------0---0---0--------|
A--------------------------------------------------------------------|
E-2--------------2---------------3--------------3--------------------|


I'll come back...
e--------------------------------------------------------------------|
B-------0--------------2---------------0--------------2--------------|
G---0-------0------0-------0-------0-------0------0-------0----------|
D-----2---2---2------0---0---0-------0---0---0------0---0---0--------|
A-3------------------------------------------------------------------|
E----------------2---------------3--------------2--------------------|

When they sing this part twice, play this the second time.
e--------------------------------------------------------------------|
B-------0--------------2---------------0--------------0--------------|
G---0-------0------0-------0-------0-------0------0-------0----------|
D-----2---2---2------0---0---0-------0---0---0------0---0---0--------|
A-3------------------------------------------------------------------|
E----------------2---------------3--------------3--------------------|


This just repeats through the song.
comments
print report bad tab
I want to post or [tab]
guest
You may want to rate the tab now too:
select rating
Please do not post tabs as comments. Select "correction" instead!