Oops, an error
Loading. Please wait.
We have an official Us tab made by UG professional guitarists. Check out the tab »
×

Us tab

56,279 views 33 this week
5 commentsread comments
1 2 3 4 5
x 26
add to favorites
×
Save as Personal and add changes to this tab that will be seen only by you. Learn more ›
×
You can save this tab as Personal to edit and correct it or add notes. All changes will be seen only by you. Learn more »
launch autoscroll
font size
0
reset
how to read this tab
guitar tuner
edit
Autoscroll
slow
fast
+/-
esc
set tempo
stop
[Intro] (x2)
    1 & 2 & 3 & 4 &   1 & 2 & 3 & 4 &   1 & 2 & 3 & 4 &   1 & 2 & 3 & 4 &
e|-----------------|-----------------|-----------------|-----------------|
B|-----------------|-----------------|-----------------|-----------------|
G|-----0---0---0---|-----2---2---2---|-----0---0---0---|-----2---2---2---|
D|---2---2---2---2-|---3---3---3---3-|---2---2---2---2-|---3---3---3---3-|
A|-3---------------|-3---------------|-3---------------|-3---------------|
E|-----------------|-----------------|-----------------|-----------------|

[Verse 1] (x4)
    1 & 2 & 3 & 4 &   1 & 2 & 3 & 4 &   1 & 2 & 3 & 4 &   1 & 2 & 3 & 4 &
e|-----------------|-----------------|-----------------|-----------------|
B|-----------------|-----------------|-----------------|-----------------|
G|-----0---0---0---|-----2---2---2---|-----0---0---0---|-----2---2---2---|
D|---2---2---2---2-|---3---3---3---3-|---2---2---2---2-|---3---3---3---3-|
A|-3---------------|-3---------------|-3---------------|-3---------------|
E|-----------------|-----------------|-----------------|-----------------|

C           F           C       F
They made a statue of us
C          F              C     F
And put it on a mountain top
C             F                 C       F
The tourists come and stare at us
C                       F           C              F
Blow bubbles with their gum, take photographs for fun
     C     F     C      F
Have fun

[Verse 2] (x4)
    1 & 2 & 3 & 4 &   1 & 2 & 3 & 4 &   1 & 2 & 3 & 4 &   1 & 2 & 3 & 4 &
e|-----------------|-----------------|-----------------|-----------------|
B|-----------------|-----------------|-----0---0---0---|-----------------|
G|-----0---0---0---|-----2---2---2---|---0---0---0---0-|-----2---2---2---|
D|---2---2---2---2-|---3---3---3---3-|-----------------|---3---3---3---3-|
A|-3---------------|-3---------------|-3---------------|-3---------------|
E|-----------------|-----------------|-----------------|-----------------|

They'll name a city after us
And later say it's all our fault
Then they'll give us a talking to, then they'll give us a talking to
Cause they've got years of experience

[Chorus](x4)
    1 & 2 & 3 & 4 &   1 & 2 & 3 & 4 &   1 & 2 & 3 & 4 &   1 & 2 & 3 & 4 &
e|-----------------|-----------------|-----------------|-----------------|
B|-------0-------0-|---1-------1-----|---1-------1-----|---0-------0-----|
G|---0-------0-----|-------0-------0-|-------2-------2-|-------0-------0-|
D|-----------------|-----------------|-----------------|-----------------|
A|-----------------|-----------------|-0---0---0---0---|-----------------|
E|-0---0---0---0---|-1---1---1---1---|-----------------|-3---3---3---3---|

        Em      F             Am          G
We're l-i-i-i-i-i-i-ving in a den of thieves
Em               F              Am      G
Rummaging for answers in the pages
        Em      F             Am          G
We're l-i-i-i-i-i-i-ving in a den of thieves
Em            F      Am           G
And it's contagious, and it's conagious
Em            F      Am           G
And it's contagious, and it's conagious

[Verse 3](x4)
    1 & 2 & 3 & 4 &   1 & 2 & 3 & 4 &   1 & 2 & 3 & 4 &   1 & 2 & 3 & 4 &
e|-----------------|-----------------|-----------------|-----------------|
B|-----------------|-----------------|-----0---0---0---|-----------------|
G|-----0---0---0---|-----2---2---2---|---0---0---0---0-|-----2---2---2---|
D|---2---2---2---2-|---3---3---3---3-|-----------------|---3---3---3---3-|
A|-3---------------|-3---------------|-3---------------|-3---------------|
E|-----------------|-----------------|-----------------|-----------------|

We wear our scarves just like a noose
But not cause we want eternal sleep
And though our parts are slightly used
New ones are slave labour you can keep

[Chorus](x4)
    1 & 2 & 3 & 4 &   1 & 2 & 3 & 4 &   1 & 2 & 3 & 4 &   1 & 2 & 3 & 4 &
e|-----------------|-----------------|-----------------|-----------------|
B|-------0-------0-|---1-------1-----|---1-------1-----|---0-------0-----|
G|---0-------0-----|-------0-------0-|-------2-------2-|-------0-------0-|
D|-----------------|-----------------|-----------------|-----------------|
A|-----------------|-----------------|-0---0---0---0---|-----------------|
E|-0---0---0---0---|-1---1---1---1---|-----------------|-3---3---3---3---|

        Em      F             Am          G
We're l-i-i-i-i-i-i-ving in a den of thieves
Em               F              Am      G
Rummaging for answers in the pages
        Em      F             Am          G
We're l-i-i-i-i-i-i-ving in a den of thieves
Em            F      Am           G
And it's contagious, and it's conagious
Em            F      Am           G
And it's contagious, and it's conagious

[Bridge]
 Am     F       C       G       (x4)
    1 & 2 & 3 & 4 &   1 & 2 & 3 & 4 &   1 & 2 & 3 & 4 &   1 & 2 & 3 & 4 &
e|-----------------|-----------------|-----------------|-----------------|
B|-----------------|-----------------|---0---0---0---0-|-----------------|
G|---0---0---0---0-|---2---2---2---2-|-----0---0---0---|---2---2---2---2-|
D|-----2---2---2---|-----3---3---3---|-----------------|-----3---3---3---| (x4)
A|-3---------------|-3---------------|-3---------------|-3---------------|
E|-----------------|-----------------|-----------------|-----------------|

[Verse 4](x4)
    1 & 2 & 3 & 4 &   1 & 2 & 3 & 4 &   1 & 2 & 3 & 4 &   1 & 2 & 3 & 4 &
e|-----------------|-----------------|-----------------|-----------------|
B|-----------------|-----------------|---0---0---0---0-|-----------------|
G|---0---0---0---0-|---2---2---2---2-|-----0---0---0---|---2---2---2---2-|
D|-----2---2---2---|-----3---3---3---|-----------------|-----3---3---3---|
A|-3---------------|-3---------------|-3---------------|-3---------------|
E|-----------------|-----------------|-----------------|-----------------|

They made a statue of us, they made a statue of us
The tourist come and stare at us, the sculptors mama sends regards
They made a statue of us, they made a statue of us
Our noses have begun to rust


[Chorus](x4)
    1 & 2 & 3 & 4 &   1 & 2 & 3 & 4 &   1 & 2 & 3 & 4 &   1 & 2 & 3 & 4 &
e|-----------------|-----------------|-----------------|-----------------|
B|-------0-------0-|---1-------1-----|---1-------1-----|---0-------0-----|
G|---0-------0-----|-------0-------0-|-------2-------2-|-------0-------0-|
D|-----------------|-----------------|-----------------|-----------------|
A|-----------------|-----------------|-0---0---0---0---|-----------------|
E|-0---0---0---0---|-1---1---1---1---|-----------------|-3---3---3---3---|

        Em      F             Am          G
We're l-i-i-i-i-i-i-ving in a den of thieves
Em               F              Am      G
Rummaging for answers in the pages
        Em      F             Am          G
We're l-i-i-i-i-i-i-ving in a den of thieves
Em            F      Am           G
And it's contagious, and it's conagious
Em            F      Am           G
And it's contagious, and it's conagious

            
            
Suggest correction
Creating personal tab
Creating personal tab
You can edit any tab online and save it as your Personal.

You can edit, replace or remove any tab part or add personal notes – all changes will be seen only by you.

Personal tabs can be accessed anytime from any device, even offline.
Learn more »
comments
print report bad tab
5 comments total. Showing first comments.
0 reply
fluidtrailstar 10 May 16, 2007 06:43 AM

pretty good, apart from the chorus chords are Am, F, C, G

0 reply
icantbelieveit 113 Jun 06, 2007 04:29 PM

Nah - i just double checked and they're definately right - the bridge is Am, F, C, G though so perhaps you got mixed up...

0 reply
muertadehambrun 266 Nov 18, 2010 10:31 AM

In the Chorus, where she sings "and it´s contagious" i think it´s C in place of Em. Anyway, great tab.

guest
You may want to rate the tab now too:
select rating
Wanna post a correction for this tab? Suggest correction