Oops, an error
Loading. Please wait.

Kailangan Koy Ikaw Tab

version 1
version 1

Whole song

Interactive

31,222 views 45 this week
1 commentread comment
1 2 3 4 5
accurate
x 5
add to favorites
launch autoscroll
font size
0
reset
how to read this tab
guitar tuner
Autoscroll
slow
fast
+/-
esc
set tempo
stop
Help us to improve Ultimate-Guitar.com Take our survey!
×
Author
aqustic 985
____________________________________________________________________________
****************************************************************************
Title: Kailangan Ko'y Ikaw
Artist: Regine Velasquez
Tabbed by: Reynaldo R. Ramos
e-mail: rey_rrr20@yahoo.com
Date: January 22, 2004
____________________________________________________________________________
****************************************************************************

Note: This information is a self transcription of mine, this is only for guitar
lessons purposes, research, or simply a guide to play this song, copying tabs for
selling or other business relations are big insult to the author!!   


Intro:

Guitar 1:

e|---------------------------------------------------------|
B|--------8-/6—-5s6--/3---5-5--------------5h6h5-----------|
G|--------------------------------5-s7-7--------5----------|
D|-----10-----------------------5--------------------------|
A|---------------------------------------------------------|
E|---------------------------------------------------------
        
e|---------------------------------------------------------|
B|---------5—5s6---6—6s5---5h6h5-------------------8-------|
G|--5—-s7--------------------------7------5—s7--7----------|
D|-------------------------------------5--------------7s9--|
A|---------------------------------------------------------|
E|---------------------------------------------------------|

Guitar 2:

e|---------0----0------------0-----0-----------0----0---------0----0---|
B|-------3----3---3--------3-----3---3-------3----3---3-----3----3---3-|
G|-----0-----------------0-----------------0--------------0------------|
D|---------------------------------------------------------------------|
A|--3-----------------2------------------0-----------------------------|
E|------------------------------------------------------3--------------|

e|------0-----0---------------------------3-----3----3------|
B|--------6-----6---------3------3------------3---3--3------|
G|----------------------5------5--------5------------5------|
D|----3---------------5------5--------5--------------5------|
A|--5-------------------------------3----------------3------|
E|------------------3---------------------------------------|


Stanza 1:

e|---------0----0------------0-----0-----------0----0---------0----0---|
B|-------3----3---3--------3-----3---3-------3----3---3-----3----3---3-|
G|-----0-----------------0-----------------0--------------0------------|
D|---------------------------------------------------------------------|
A|--3-----------------2------------------0-----------------------------|
E|------------------------------------------------------3--------------|

e|------------------------------------------3--------------------------|
B|--------6----6-----------3-----3-----------------------5------7------|
G|------5----5---5-------5-----5---5------5-----5------5------7---7----|
D|----3----------------5----------------5-----5---5--7-----------------|
A|--5---------------------------------3---------------------8----------|
E|-------------------3-------------------------------------------------|

e|---------0----0------------0-----0-----------0----0---------0----0---|
B|-------3----3---3--------3-----3---3-------3----3---3-----3----3---3-|
G|-----0-----------------0-----------------0--------------0------------|
D|---------------------------------------------------------------------|
A|--3-----------------2------------------0-----------------------------|
E|------------------------------------------------------3--------------|

e|------------------------------------------3----3--------------------|
B|--------6----6-----------3-----3-------------3---3------------------|
G|------5----5---5-------5-----5---5------5---------------5-------5---|
D|----3----------------5----------------5---------------3---3---3---3-|
A|--5---------------------------------3---------------3---------------|
E|-------------------3----------------------------------------3-------|


Chorus 1:

e|---------------------------3---------------3------------------0--|
B|----------1------------3-------3-------3-------3--------0--------|
G|--------2-----2------4---4---4-------4---4---4--------5-----5----|
D|------3-----3------3---------------5----------------7-----7------|
A|----3---------------------------------------------0--------------|
E|--1--------------------------------------------------------------|

e|-------------0----------------------------------------------------|
B|--------6------6------3---3---3--6-----6-5-----5------5-------5---|
G|------5----5----------4---5---4--5---5---5---5------5---5---7---5-|
D|----3---------------5---5---5----5-5-----5-5------7---------------|
A|--5------------------------------3-------3----------------8-------|
E|------------------3-----------------------------------------------|

Instrumental:

Guitar 1:

e|---------0----0------------0-----0-----------0----0---------0----0---|
B|-------3----3---3--------3-----3---3-------3----3---3-----3----3---3-|
G|-----0-----------------0-----------------0--------------0------------|
D|---------------------------------------------------------------------|
A|--3-----------------2------------------0-----------------------------|
E|------------------------------------------------------3--------------|

e|------------------------------------------3----3--------------------|
B|--------6----6-----------3-----3-------------3---3------------------|
G|------5----5---5-------5-----5---5------5---------------5-------5---|
D|----3----------------5----------------5---------------3---3---3---3-|
A|--5---------------------------------3---------------3---------------|
E|-------------------3----------------------------------------3-------|

Guitar 2:

e|--------------------------------------------------------------|
B|--6s8--6-5----5-5---------------5-------6s8--6-5—5s6--6—6s5---|
G|-----------7---------5—5s7--7-----5v--------------------------|
D|-------------------5------------------------------------------|
A|--------------------------------------------------------------|
E|--------------------------------------------------------------|

e|---------------------------------------3-5-3------------------|
B|--5h6h5----------------5-5---3-5-6----------------------------|
G|--------7---4-5--7--7-----------------------------------------|
D|--------------------------------------------------------------|
A|--------------------------------------------------------------|
E|--------------------------------------------------------------|

Chorus 2:

e|--------------------------------------------------------------------|
B|--------1-----1----------1-----1----------3-----3----------1-----1--|
G|------2-----2---2------2-----2---2------4-----4---4------2-----2--2-|
D|----3-----3----------3-----3----------5-----5----------2-----2------|
A|-----------------------------------------------------0--------------|
E|--1----------------1----------------3-------------------------------|

e|----------1-----1-----------------------------------------------------|
B|--------3-----3---3-------3-----3----------5-----5----------4-----4---|
G|------2-----2-----------4-----4---4------5-----5---5------5-----5---5-|
D|----0-----------------5-----5----------5-----5----------6-----6-------|
A|-------------------------------------3--------------------------------|
E|--------------------3---------------------------------4---------------|

Chorus 3: (1/2 step higher C#)

e|--------------------------------------------------------------------|
B|--------6-----6----------6-----6----------6-----6---------6-----6---|
G|------6-----6---6------6-----6---6------6-----6---6-----6-----6---6-|
D|----6-----6----------6-----6----------6-----6---------6-----6-------|
A|--4----------------3------------------------------------------------|
E|------------------------------------6---------------4---------------|

e|--------------------------------------------------------------------|
B|--------7-----7----------5-----5---------6-----6--------------------|
G|------8-----8---8------6-----6---6-----6-----6---6------6-------6---|
D|----8-----8----------6-----6---------6-----6----------4---4---6---6-|
A|--6--------------------------------4----------------4---------------|
E|-------------------4----------------------------------------4-------|

e|------------------------------------------------------6-------|
B|---------2-----2----------1-----1----------6-----6----6-------|
G|-------3-----3---3------3-----3---3------7-----6---6--6-------|
D|-----4-----4----------3-----3----------8-----8--------8-------|
A|------------------------------------------------------8-------|
E|--2-----------------1----------------6----------------6-------|

Outro:

Guitar 1:
e|-----------------6---------------------------|
B|------6----6-7-----7-------------------------|
G|----8----8-----6-----6---------6------6-5----|
D|-----------------------------6-----6---------|
A|---------------------------6-----------------|
E|-------------------------4-------------------|

e|--4-----------------------------------------------|
B|--------4---6/---------9-------4—4h6--------------|
G|------6--------------6----------------------------|
D|----6--------------6--------6---------6s8-6---6s8-|
A|--4-----------------------------------------------|
E|-----------------8--------6-----------------------|

e|----------------4s6--4----------------------------|
B|-----------7---------------7--6-----6--4----6-----|
G|--------6-----------------------------------6-----|
D|---6s8--------------------------------------6-----|
A|--------------------------------------------4-----|
E|--------------------------------------------------|

Guitar 2:

e|--------------------------------------------------------------|
B|--------4---------4--------6----------------------------------|
G|------6---------1--------6---------6-------6-------6------8---|
D|----6---------1--------6---------6-------6-------8------8-----|
A|--4---------3-----------------------------------------6-------|
E|---------------------6--------4-------6--------6--------------|

e|-------------------------------------------------|
B|---------------------------------------6---------|
G|-------6------6-------3-----------5----6---------|
D|-----6------6-------4---4-------6------6---------|
A|------------------------------6--------4---------|
E|--4-------4-------2---------4--------------------|


Kailangan ko'y ikaw 
Dito sa piling ko 
Kailangan kong madama 
Ang pag-ibig mo 

Sa bawat oras na 
Di ka nakikita 
Para bang kay bigat 
Ng nadarama 

O giliw nasan ka 
Bakit lumisan ka 
Paano nang 
Puso kong nag-iisa 

O giliw nasan ka 
Bakit lumisan ka 
Paano nang puso kong nag-iisa 

Kailangan ko'y ikaw 
Sa bawat sandali 
Kailangan ko'ng yakap mo 
At iyong halik 

Kailangan ko'y ikaw 
Dito sa buhay ko 
Paano nang puso kong nag-iisa 

Kailangan ko'y ikaw 

_____________________________________END____________________________________
*************************************   ************************************
Suggest correction new What's this?
You can suggest a correction to this tab. Community and Mods will review your correction and vote to approve or reject it.
comments
print report bad tab
1 comment total.
0 reply
stringlizner 107 wrote on August 6 2004, 12:00 am

gaLing mO pre...where you from

guest
You may want to rate the tab now too:
select rating
Please do not post tabs as comments. Select "correction" instead!