Oops, an error
Loading. Please wait.

You Are My Song Acoustic tab

version 1
version 1

Whole song

709 views 3 this week
no commentswrite comment
1 2 3 4 5
3 more votes to show rating
add to favorites
×
Save as Personal and add changes to this tab that will be seen only by you. Learn more ›
×
You can save this tab as Personal to edit and correct it or add notes. All changes will be seen only by you. Learn more »
launch autoscroll
font size
0
reset
how to read this tab
guitar tuner
edit
Autoscroll
slow
fast
+/-
esc
set tempo
stop
Author
Difficulty
intermediate
You Are My Song by Regine Velasquez
Key of D (Regine’s version is in Key of F)
Video Demo:  https://www.youtube.com/watch?v=vlE9qIZHdqA


[Intro]

E|--------2-----------------------------------------------5--|
B|--3--------3--2--3--------3--3-----------------------2-----|
G|-----2-----------------4--------4--------4--2-----2--------|
D|--0-----------------4-----------------5--------2-----------|
A|-----------------2-----------------5--------0--------------|
E|--------------------------------3--------------------------|
D  Bm  G A


[Verse]

E|---------------------------------------|
B|--2/3--2--3----------------------------|
G|-------------2--2p0-----0--0-----0-----|
D|--0------------------4--------4-----2--|
A|-------------0----------------------0--|
E|------------------------3--------------|
    D           A               G            A 
   You are the song playing so softly in my heart

E|-------------------------------------|
B|--3--2--3-------------------3--------|
G|-----------2--2p0-----0--0-----------|
D|--0----------------4-----------4--2--|
A|-----------0----------------------0--|
E|----------------------3--------------|
   D            A                G           A
   I reach for you, you seem so near yet so far

E|--------------------------------------------------|
B|-----0--------------------------0-----------------|
G|--------------0-----2--------------0--------4--2--|
D|--0--------0-----0--------4--0--------0-----------|
A|--------2--------------4--------------------------|
E|-----3--------------2-----------3--------2--------|
      G         F#m         G          F#m 
   I hope and I pray you'll be with me someday

E|--------------------------------------------|
B|-----0-----------0--2-----------2--3--------|
G|--------------0--------------2-----------4--|
D|--0--------0--------------4-----------4-----|
A|--------2--------------4-----------2--------|
E|-----3--------------2-----------------------|
      G           F#m          Bm
   I know down inside you are mine


E|--------2--0-----|
B|--2--------------|
G|-----4--------4--|
D|-----------------|
A|-----------------|
E|--------0--------| 
          Em
  And I'm your true love

E|--2p0-----------------|
B|-------3--0--------2--|
G|----------------2--0--|
D|-------------2-----2--|
A|----------0--------0--|
E|----------------------|
            Add9   A7
   Or am I drea---ming


[Chorus]

E|--------2-----------------|
B|--3--------3--2--3--------|
G|-----2-----------------4--|
D|--0-----------------4-----|
A|-----------------2--------|
E|--------------------------|
    D      Bm
   How can I

E|--------------------0--0--|
B|--3--3--3--3--3--3-----2--|
G|-----4-----------------2--|
D|-----------------------2--|
A|-----------------0-----0--|
E|-----3--------------------|
         G             A
   Each time I try to say goodbye

E|--------2-----------------|
B|--3--------3--2--3--------|
G|-----2-----------------4--|
D|--0-----------------4-----|
A|-----------------2--------|
E|--------------------------|
    D        Bm
   You were there

E|-----------------2--0--0--|
B|-----3--3--3--5--------2--|
G|--4--4-----------------2--|
D|-----------------------2--|
A|-----------------0-----0--|
E|-----3--------------------|
        G              A
   You look my way, I touch the sky

E|--1--------0--1-----------1-----1--1--1--3--3--|
B|--1-----1-----3-----3--3-----3--------1-----1--|
G|--2--2--------2--2--------------------------0--|
D|--------------0-----------------------------2--|
A|--------------------------1-----------3-----3--|
E|--1--------------------------------------------|
   F       Dm     Bb            C
   We can share tomorrow and forever more

E|--5--3--1--3--1-----1-----1--|
B|--------------3--3-----3--3--|
G|--------------2-----------3--|
D|--------------0-----------3--|
A|--------------------1-----1--|
E|--1--------------------------|
    F       Dm       Bb        
   I'll be there to love you so

E|-----3--3--5--5--------3--0--|
B|-----1--------3--------3--2--|
G|-----0--------2--------4--2--|
D|--------------0--------5--2--|
A|--3-----------------5-----0--|
E|-----------------3-----------|
                C  G A
   You are my song


(Follow TABS from Verse 1)


[Verse 2]

D           A
I know for sure
              G                A
That we were meant to fall in love
   D            A
I look in your eyes
             G              A
I know what you're thinking of
   G         F#m   
I try not to say 
     G                 F#m 
The words that might scare you away
    G         F#m            Bm
I know down inside you are mine
         Em
And I'm you're true love
               Aadd9  A7  
Please no more drea--min'


[Chorus]

E|--------2-----------------|
B|--3--------3--2--3--------|
G|-----2-----------------4--|
D|--0-----------------4-----|
A|-----------------2--------|
E|--------------------------|
    D      Bm
   How can I

E|--------------------0--0--|
B|--3--3--3--3--3--3-----2--|
G|-----4-----------------2--|
D|-----------------------2--|
A|-----------------0-----0--|
E|-----3--------------------|
         G             A
   Each time I try to say goodbye

E|--------2-----------------|
B|--3--------3--2--3--------|
G|-----2-----------------4--|
D|--0-----------------4-----|
A|-----------------2--------|
E|--------------------------|

    D        Bm
   You were there
E|-----------------2--0--0--|
B|-----3--3--3--5--------2--|
G|--4--4-----------------2--|
D|-----------------------2--|
A|-----------------0-----0--|
E|-----3--------------------|
        G              A
   You look my way, I touch the sky

E|--1--------0--1-----------1-----1--1--1--3--3--|
B|--1-----1-----3-----3--3-----3--------1-----1--|
G|--2--2--------2--2--------------------------0--|
D|--------------0-----------------------------2--|
A|--------------------------1-----------3-----3--|
E|--1--------------------------------------------|
   F       Dm     Bb            C
   We can share tomorrow and forever more

E|--5--3--1--3--1-----1-----1--|
B|--------------3--3-----3--3--|
G|--------------2-----------3--|
D|--------------0-----------3--|
A|--------------------1-----1--|
E|--1--------------------------|
    F       Dm       Bb        
   I'll be there to love you so

E|-----3--3--5--5--------3--0--|
B|-----1--------3--------3--2--|
G|-----0--------2--------4--2--|
D|--------------0--------5--2--|
A|--3-----------------5-----0--|
E|-----------------3-----------|
                C  G A
   You are my song


E|--5/7--5-----5--|
B|----------8--7--|
G|-------------7--|
D|-------------0--|
A|----------------|
E|----------------|
                D
   You are my song



************************************

| p  Pull-off
| /  Slide up

************************************

            
            
Suggest correction
Creating personal tab
Creating personal tab
You can edit any tab online and save it as your Personal.

You can edit, replace or remove any tab part or add personal notes – all changes will be seen only by you.

Personal tabs can be accessed anytime from any device, even offline.
Learn more »
Give kudos to tab author, rate the tab!
1 2 3 4 5
comments
print report bad tab
guest
You may want to rate the tab now too:
select rating
Wanna post a correction for this tab? Suggest correction