Oops, an error
Loading. Please wait.

Empujando La Linea tab

version 2
version 2

Whole song

1,720 views 3 this week
no commentswrite comment
1 2 3 4 5
1 last vote to show rating
add to favorites
×
Save as Personal and add changes to this tab that will be seen only by you. Learn more ›
×
You can save this tab as Personal to edit and correct it or add notes. All changes will be seen only by you. Learn more »
launch autoscroll
font size
0
reset
how to read this tab
guitar tuner
edit
Autoscroll
slow
fast
+/-
esc
set tempo
stop
Acordes:  DO-2: 8   FA-2: x   SOL-2: x   DO-1: 0  FA-1: 0  SOL-1: 0
                8         x          x         1        1         3
                9         10         12        0        2         4
                10        7          9         2        3         5
                x         8          10        3        x         x
                x         x          x         x        x         x

e[--------------------0--]
B[--------------------1--]
G[--------------------0--]
D[--------------------2--]
A[-----0--2--3--0--3--3--]
E[--3-----------------x--]


[-----------------------0-----0--]
[-----------------------1-----1--]
[--0--2--0--------------0-----3--]
[-----------3--2--0-----2-----2--]
[--------------------3--3-----3--]
[-----------------------x--3--x--]

e[--8-8-8-5-8-5-8-8-8-5-8-5--]
B[---------------------------]

e[--12-12-12-10-12-10-12-12-12-10-12-10-8------------------------]
B[----------------------------------------10-8--8-10-8-----------]
G[-----------------------------------------------------10-9-7----]
D[------------------------------------------------------------10-] DO-2

e[--8-8-8-5-8-5-8-8-8-5-8-5--]
B[---------------------------]

e[--12-12-12-10-12-10-12-12-12-10-12-10-8-7-6-------------------]
B[---------------------------------------------10-8-------------]
G[--------------------------------------------------7-9-10-7-9--]
D[--------------------------------------------------------------]


FA-2               SOL-2               DO-2
Una escuadra super rayo y las cachas doradas
FA-2               SOL-2              DO-2   SOL-1       DO-1
busquenle por otra parte yo no doy quebrada, para ni una trampa


FA-1               SOL-1                 DO-1
Me gusta andar ensillado ensillo a mi plebada
FA-1                     SOL-1                DO-1    SOL-1      DO-1
traigo mas lumbre que el diablo si quieren le calan, aver si me aguantan


    FA-1                SOL-1                DO-1
Mas te enseñan los desengaños que los mismos años
FA-1               SOL-1              DO-1       SOL-1     DO-1
joven pero bien curtido para el contrabando, que les quede claro


FA-1            SOL-1                 DO-1
Mi apa me dio licensia para andar chambeando
FA-1               SOL-1              DO-1   SOL-1     DO-1
con la firma autorisada de mi niño el chapo, asi o mas claro

         SOL-1                            FA-1
Y en mis fiestas siempre hay bando los norteños
                    SOL-1                   DO-1
las guitarras me alegra jesus ojeda y sus perientes
        SOL-1                    LA-1
los de enigma siempre jalo los tucanes casi
               SOL-1                    DO-1
diario tambien la recodo y los nuevos reveldes


Todo el intro de nuevo, se toca lo mismo otra ves.
pongan mucha atencion a todo lo que escribi.
Suggest correction
Creating personal tab
Creating personal tab
You can edit any tab online and save it as your Personal.

You can edit, replace or remove any tab part or add personal notes – all changes will be seen only by you.

Personal tabs can be accessed anytime from any device, even offline.
Learn more »
Give kudos to tab author, rate the tab!
1 2 3 4 5
comments
print report bad tab
guest
Wanna post a correction for this tab? Suggest correction