Oops, an error
Loading. Please wait.

Drop tab

300 views 1 this week
1 commentread comment
1 2 3 4 5
x 3
add to favorites
×
Save as Personal and add changes to this tab that will be seen only by you. Learn more ›
×
You can save this tab as Personal to edit and correct it or add notes. All changes will be seen only by you. Learn more »
launch autoscroll
font size
0
reset
how to read this tab
guitar tuner
edit
Autoscroll
slow
fast
+/-
esc
set tempo
stop
Author
This is the first single released from Band in a Bubble on Channel [V]!!!
Rock on Australia

This is right!!

Tuning:Drop D

e|-------------------------------------|
B|-------------------------------------|
G|---------------------------8-8-8-8---|
D|----8/10-0-8/10-0-8/10-0---8-8-8-8---|
A|----8/10-0-8/10-0-8/10-0---6-6-6-6---|
D|----8/10-0-8/10-0-8/10-0-------------|

This is like this through the whole song

Hate Mail Crap

moon_howler_2004@yahoo.com  RRate this 5 starz plz! :D

            
            
Suggest correction
Creating personal tab
Creating personal tab
You can edit any tab online and save it as your Personal.

You can edit, replace or remove any tab part or add personal notes – all changes will be seen only by you.

Personal tabs can be accessed anytime from any device, even offline.
Learn more »
Give kudos to tab author, rate the tab!
1 2 3 4 5
comments
print report bad tab
1 comment total.
0 reply
crondom 103 Mar 21, 2008 08:08 PM

it actually goes
e|------------------------------------|
B|------------------------------------|
G|------------------------7--9-9-9-9--|
D|------------------------7--9-9-9-9--|
A|--x--x-x-x--x-x-x--x-x--5--7-7-7-7--|
E|--5--7-x-5--7-x-5--7-x--------------|
i tabbed it from band in a bubble!!

guest
You may want to rate the tab now too:
select rating
Wanna post a correction for this tab? Suggest correction