Oops, an error
Loading. Please wait.

Unit album chords

43 views 9 this week
no commentswrite comment
1 2 3 4 5
3 more votes to show rating
add to favorites
×
Save as Personal and add changes to this tab that will be seen only by you. Learn more ›
×
You can save this tab as Personal to edit and correct it or add notes. All changes will be seen only by you. Learn more »
launch autoscroll
font size
0
reset
transpose
0
reset
simplify chords
display chords
guitar tuner
edit
Autoscroll
slow
fast
+/-
esc
set tempo
stop
About this tab version
Chords for all 13 tracks of the album Unit by Regurgitator (with the exception of one. It makes sense in context). Was this info helpful? Yes No
Strumming
There is no strumming pattern for this song yet. and get +5 IQ
Unit by Regurgitator - Album Tab

Tracklist
1) I Like Your Old Stuff Better Than Your New Stuff
2) Everyday Formula
3) ! (The Song Formerly Known As)
4) Black Bugs
5) The World of Sleaze
6) I Piss Alone
7) Unit
8) I Will Lick Your Asshole
9) Modern Life
10) Polyester Girl
11) 1234
12) Mr. T
13) Just Another Beautiful Story

==============================================================================================================

TRACK 1: I Like Your Old Stuff Better Than Your New Stuff

[Intro]
   A B x4

[Verse 1]

A                               B
   I see your band now and it's not too bad
A                                  B
   You're nothing like you used to be
A                                      B
   Please write some songs that really do not suck
A                                 B
   Please become what you were before

[Chorus]
E                           B                 A                   
   I like your old stuff better than your new stuff
E                           B                 A    
   I like your old stuff better than your new stuff
E                           B                 A    
   I like your old stuff better than your new stuff
E                           B                 A    
   I like your old stuff better than your new stuff

[Verse 2]
A                          B
   I try hard not to bring up the past
A                       B
   I'm sorry i had to again
A                               B
   You don't know me i feel you are my friend
A                           B
   I'm trying not to be pretend

[Chorus]
E                           B                 A                   
   I like your old stuff better than your new stuff
E                           B                 A    
   I like your old stuff better than your new stuff
E                           B                 A    
   I like your old stuff better than your new stuff
E                           B                 A    
   I like your old stuff better than your new stuff  

E                                         B   A              
   I like your old stuff better than your new stuff
E                                         B   A    
   I like your old stuff better than your new stuff
E                                         B   A     
   I like your old stuff better than your new stuff
E                                         B   A    
   I like your old stuff better than your new stuff

N.C.            
   I like your old stuff better than your new stuff
    
   I like your old stuff better than your new stuff
  
   I like your old stuff better than your new stuff
                                          B   A    
   I like your old stuff better than your new stuff

[Bridge]
  E                          B   A
e|-|-4-----4-----4-----4-----4---4-5-|
B|-|---5-----5-----5-----5-----5-----|
G|-|-----4-----4-----4-----4---------|
D|-|---------------------------------| x3
A|-|---------------------------------|
E|-|---------------------------------|

  E                    B         A
e|-|-4-----4-----4-----4-----4---4-5-|
B|-|---5-----5-----5-----5-----5-----|
G|-|-----4-----4-----4-----4---------|
D|-|---------------------------------| 
A|-|---------------------------------|
E|-|---------------------------------|

[Outro]
E                                         B   A              
   I like your old stuff better than your new stuff
E                                         B   A    
   I like your old stuff better than your new stuff
E                                         B   A     
   I like your old stuff better than your new stuff
E                                         B   A    
   I like your old stuff better than your new stuff
E                                         B   A              
   I like your old stuff better than your new stuff
E                                         B   A    
   I like your old stuff better than your new stuff
E                                         B   A     
   I like your old stuff better than your new stuff
E                                         B   A    
   I like your old stuff better than your new stuff

==============================================================================================================

TRACK 2: Everyday Formula

[Intro/Verse/Chorus]
e|-|--------------------------------------|
B|-|--------------------------------------|
G|-|--------------------------------------|
D|-|--------------------------------------| x4
A|-|--------------------------------------|
E|-|-3-5-5-3-5-5-3-5/8-10-10-8-10-10-8-10-|

Note: The following has been simplified for the sake of easier play. For the actual song, refer to the riff
      above.
[Verse 1]
A             D             A       D
   Everyday I shit into the sea
A                      D                      A    D
   It's strange but it doesn't mean much to me
A                  D            A    D
   I'm living in a porcelain dream
A                   D               A       D
   And things ain't quite what they seem

[Pre-Chorus]
E           D
   I try to keep things so nice
E                D
   Each surface glowing snow white
E               D           A
   It's good to be alive in here

[Chorus]
D                      A 
   It's gonna be alright
D                      A 
   It's gonna be alright
D                      A 
   It's gonna be alright

[Verse 2]   
A             D               A   D
   Everyday I talk to my machines
A                  D                  A    D
   More sense than talking to human beings
A                     D              A  D
   It's pretty in the land of the free
A                      D               A   D
   Where things ain't quite what they seem

[Pre-Chorus]
E                   D
   My whole world's cheap and phony
E                  D
   Dear hearts get lost and lonely
E                  D            A
   I'll get what's coming to me soon

[Chorus]
D                      A 
   It's gonna be alright
D                      A 
   It's gonna be alright
D                       
   It's gonna be alright

[Bridge]
  F
e|-|----------------------------------------------|
B|-|----------------------------------------------|
G|-|----------------------------------------------|
D|-|----------------------------------------------|  x2
A|-|-6-8--6-8----6-8--6-8----6-8--6-8----6-8--6-8-|
E|-|----------------------------------------------|

   Doo doo doo doo doo doo doo-doo 

[Chorus]
D                      A 
   It's gonna be alright
D                      A 
   It's gonna be alright

[Bridge]
  F
e|-|----------------------------------------------|
B|-|----------------------------------------------|
G|-|----------------------------------------------|
D|-|----------------------------------------------|  x2
A|-|-6-8--6-8----6-8--6-8----6-8--6-8----6-8--6-8-|
E|-|----------------------------------------------|

   Doo doo doo doo doo doo doo-doo 

[Chorus]
D                      A 
   It's gonna be alright
D                      A 
   It's gonna be alright
D                      A 
   It's gonna be alright
D                       
   It's gonna be all shite.

==============================================================================================================

TRACK 3: !(The Song Formerly Known As)

[Intro]
e|-|-4-4-4--4-4-4-4-4--4-4-4-4-4--4-4-4-4-4--4-4--|
B|-|-5-5-5--5-5-5-5-5--5-5-5-5-5--5-5-5-5-5--5-5--|
G|-|----------------------------------------------| x2
D|-|----------------------------------------------| 
A|-|----------------------------------------------|
E|-|----------------------------------------------|
    F# x8

[Verse 1]
   F#
   I don't go to parties baby
    
   cos people tend to freak me out
   E
   watch their lips you can work it out
                                                         F#
   I can hear the words but I still don't know what it's all about
       F#
   you won't see me down the disco mama
   
   bright lights really hurt my eyes
        E
   i'd rather stay and dance with you
                                       F#
   to the funky music playing on your stereo

[Chorus]
   B A# F# E                    F#                     
   ooh ooh, things don't get no better

   better than you and me
   B A# F# E                    F# 
   ooh ooh, things don't get no better. better than you and me 

[Verse 2]
   F#
   I don't go to concerts baby

   music's always up too loud
   E
   cigarettes and alcohol get up my arse
                     F#
   I always lose you in the crowd
       F#
   you won't see me tribal raving baby

   cos i won't ever look that good
       E                                                               F#
   i'd rather dance in ugly pants in the comfort of a loungeroom in suburbia

[Chorus]
   B A# F# E                    F#                     
   ooh ooh, things don't get no better

   better than you and me
   B A# F# E                    F# 
   ooh ooh, things don't get no better

   better than you and me

[Pre-Chorus]
e|-|-4-4-4--4-4-4-4-4--4-4-4-4-4--4-4-4-4-4--4-4--|
B|-|-5-5-5--5-5-5-5-5--5-5-5-5-5--5-5-5-5-5--5-5--|
G|-|----------------------------------------------| 
D|-|----------------------------------------------| 
A|-|----------------------------------------------|
E|-|----------------------------------------------|

e|-|-4-4-4--4-4-4-4-4--4-4-4-4-4--4-4-------2--|
B|-|-5-5-5--5-5-5-5-5--5-5-5-5-5--5-5-----2----|
G|-|------------------------------------3------| 
D|-|----------------------------------4--------| 
A|-|-------------------------------------------|
E|-|-------------------------------------------|
                                             That's Right!

[Chorus]
   B A# F# E                    F#                     
   ooh ooh, things don't get no better

   better than you and me
   B A# F# E                    F# 
   ooh ooh, things don't get no better. better than you and me

[Outro]
     F          F          F          F      
e|-|-4-4-4--4-4-4-4-4--4-4-4-4-4--4-4-4-4-4--4-4--|
B|-|-5-5-5--5-5-5-5-5--5-5-5-5-5--5-5-5-5-5--5-5--|
G|-|----------------------------------------------| x2
D|-|----------------------------------------------| 
A|-|----------------------------------------------|
E|-|----------------------------------------------|

C#            F# C#
Thank you Mr. DeeJay...

==============================================================================================================

TRACK 4 - Black Bugs
[Intro/Verse]
e|-|----------------------------------------|
B|-|----------------------------------------|
G|-|----------------------------------------| x4
D|-|----------------------------------------| 
A|-|-13-13-13-13-13-13-13/9-9-9-9-9-9-9-9-9-|
E|-|-11-11-11-11-11-11-11/7-7-7-7-7-7-7-7-7-|

[Verse 1]
         D#m                         B
   I got killed by black bugs on my video game
              D#m                       B
   But then I know to myself it doesn't mean too much
          D#m                      B
   I keep dying and dying over and over again
         D#m                     B
   But I feel I'm alive so I'll just pretend

[Chorus]
C# 
   What's at the end
D#m
   What's at the end
F#
   What's at the end of Satan's rainbow?
C# 
   What's at the end
D#m
   What's at the end
F#
   What's at the end of Satan's rainbow?

[Verse 2]
   D#m  B x2
            
                 D#m                     B    
   Stared at the TV too long now and I'm not the same
             D#m                      B
   I got too remind my self that it's just a game
                D#m                         B
   It's getting harder and harder to get to sleep at night 
                D#m                       B
   I think I'll let them shoot me so that I can die

[Chorus]
C# 
   What's at the end
D#m
   What's at the end
F#
   What's at the end of Satan's rainbow?
C# 
   What's at the end
D#m
   What's at the end
F#
   What's at the end of Satan's rainbow?

[Bridge]
     D#m           B          D#m           B
e|-|-6-4----------------------6-4-----------------11-11-|
B|-|-----7-4--2-4--7-6-6--4-4-----7-4--2-4--7-6-4-------|
G|-|----------------------------------------------------| 
D|-|----------------------------------------------------| 
A|-|----------------------------------------------------|
E|-|----------------------------------------------------|
     D#m           B          D#m          B
e|-|-6-4----------------------6-4----------1-14---------|
B|-|-----7-4--2-4--7-6-6--4-4-----7-4--4-4--------------|
G|-|----------------------------------------------------| 
D|-|----------------------------------------------------| 
A|-|----------------------------------------------------|
E|-|----------------------------------------------------|

[Chorus]
C# 
   What's at the end
D#m
   What's at the end
F#
   What's at the end of Satan's rainbow?
C# 
   What's at the end
D#m
   What's at the end
F#
   What's at the end of Satan's rainbow?
C# 
   What's at the end
D#m
   Tell me is this the end
F#
   What's at the end of Satan's rainbow?
C# 
   What's at the end
D#m
   What's at the end
F#
   What's at the end of Satan's rainbow?

[Outro]
    D#m    F#        C#
e|-|---4-----6----9----2-|
B|-|-2-----4----7----0---|
G|-|---------------------| x8
D|-|---------------------| 
A|-|---------------------|
E|-|---------------------|
                     Ooooh, what's at the end?

==============================================================================================================

TRACK 5 - The World of Sleaze

[Intro]
   A G F# , A G Em F# x2

[Verse 1]
   A              G        F#
   Welcome to the world of sleaze
                A                G        Em  F#
   Pretty baby, we've got everything you need
   A                  G      F#     
   You'll fit in it's such a breeze, pretty baby
   A            G       Em   F#
   Happy living on your knees

[Chorus]
               B         E 
   Cos there's dicks and cunts
       B         E  
   And sluts and butts, oh
   B         E
   Pimps and hoes, yeah
   G         A
   Plenty of those
   B          E          B              E
   There's no end to the things you can win
       B            E             G                A
   And i'll be your friend if you just spread your legs
 A#           D
   Don't be afraid
 A#              D
   Everything's great
 A#            D         C            B
   You'll be okay if you just take my hand
   G        D
   Ugh-wow, yeah!
 
[Verse 2]
   A              G        F#
   Welcome to the world of sleaze
               A                G        Em  F#
   Baby, may I help you sir, we aim to please
   A                  G        F#     
   Walking trough the world of sleaze, pretty baby
   A            G        Em   F#
   We got everything you need

[Chorus]
               B         E 
   Cos there's dicks and cunts
       B         E  
   And sluts and butts, oh
   B         E
   Pimps and hoes, yeah
   G         A
   Plenty of those
   B          E          B              E
   There's no end to the things you can win
       B             E             G                A
   And i'll be your friend if you just spread your legs
   B         E 
   dicks and cunts
       B         E  
   And sluts and butts, oh
   B         E
   Pimps and hoes, yeah
   G         A
   Plenty of those
   B            E           B       E
   Flesh in the rare with a vacant stare
       B        E             G               A
   And rich fanfares spurting joy through the air
 A#           D
   Don't be afraid
 A#              D
   Everything's great
 A#            D         C            B
   You'll be okay if you just take my hand
   G        D
   Ugh-wow, yeah!
   G        D
   Ugh-wow, yeah!
   G        D7
   Ugh-wow, yeah!

==============================================================================================================

TRACK 6 - I Piss Alone

[Intro]
G                    B
   I piss alone, ugh hoh
 
   I don't want nobody to know
          F                           C                 B
   That I haven't got the pressure of some of the other boys
               A#                  D#m
   They make a noise, it scares me so

[Verse 1]
 G
   I piss alone, alone
   F#
   I don't want nobody to know
          F                          B#                B
   That I don't have the pressure of some of the other boys
 G       
   Leave me alone, alone
          F#
   I just wanna be on my own
            F                           B#                B
   'Cause I haven't got the pressure of some of the other boys

[Chorus]
 A          G#                  C#m             F#   G#
   I want a world where pissing troughs are obsolete
 A              B#               E
   There's only rows and rows of cubicles

[Verse 2]
 G
   I'm so afraid
          F#
   When I try it is often delayed
     F                 B#
   I stand and stare into the air
              B
   And then I might just put it away
 G
   So quiet in here
            F#
   The only sound around is the fear
       F            B#
   The other guy is pounding the wall
   B
   Like he's shooting dear

[Chorus]
 A          G#                C#m                F#   G#
   I need a place where I can close and lock the door
 A              B#              E
   Then I can stop and let it flow

==============================================================================================================

TRACK 7 - Unit

No tab for this one. It's just random fucking noises. What more do you want from me? Just make random noises 
with your guitar and try to weird your audience out as much as possible and you've basically done it.

Here are the lyrics though, to help you out.

   See the unit
   Eat the unit
   Love the unit
   Kisssssssssss..
   Taste the unit
   Lick the unit
   Hate the unit
   Touch the unit
   Feel the unit
   Hear the unit
   Kill the unit
   Find the unit
   I am the unit 
   I am the unit
   We are the unit
   We are the unit
   Become the unit
   Become the unit
   Become the unit
   Become the unit
   Unit
   Unit
   Unit
   Unit
   I am the unit

=============================================================================================================

TRACK 8 - I Will Lick Your Asshole

[Intro/Verse]
  D   
e|-|----------------------------------------------------|
B|-|----3--1-3-----3--1-----3--1-3-----3--1-------------|
G|-|----------------------------------------------------| 
D|-|-0---------0-0------5-0--------0-0------------------|  x16
A|-|----------------------------------------------------|
E|-|----------------------------------------------------|

   i'm like mr. clifford richard i'm wired for sound

   and when i get myself a mic you won't want to be around

   i'm off like a note in karen's 'day tripper'

   i'm faking all my lines like that dolphin called flipper

   i send chills down your spine like the strings in billie jean

   i'm so far underground that i'm a one person scene

   i'm overly thorough just like david attenborough

   when he's whispering in the jungle like they're working undercover

   evidence irrefutable i'm squarer than a cublicle

   i hug the straight and narrow like a julie arrows musical
  
   i derail and fail with abstract verse i fail to curtail

   the rhythmical measures and pleasurable endeavours never sail
   
   i'm lacking in ambition simply no predisposition

   and when i hit the stage i lose all composition

   i never like it loud 'cause crowded places scare me

   i dig the rock and roll as much as peter paul and mary

[Chorus]

N.C.
   asshole

   i will lick your asshole

   i will lick your asshole

   i will lick your *beep*

[Verse 2]

  D   
e|-|----------------------------------------------------|
B|-|----3--1-3-----3--1-----3--1-3-----3--1-------------|
G|-|----------------------------------------------------|  x16
D|-|-0---------0-0------5-0--------0-0------------------| 
A|-|----------------------------------------------------|
E|-|----------------------------------------------------|

   i'm the host with the most uber guy smiley

   i've got the special effects like the bbc man

   i've got flow like mal steem's got chops

   it seems that i'm so bad they get l.l. to call the cops

   beats so hard they'll be bustin up your spleen

   i got more rhymes than dern's hair got sheen

   i put flash in the dance just like irene cara

   and i've got more toys than teruhisa kitahara

   like a digital refinery i hope you 'lise the binary

   so zeros after ones getting lined up into finery

   i put them into rows to get the music go

   and they goes and they flows like the mucus out your nose

   i'm the asisiatic australasiatic

   instamatic rhythm box static addict

   i got the juice and all else got the pith

   and i'm tough under pressure just like sarah jean smith

[Chorus]

N.C.
   asshole

   i will lick your asshole

   i will lick your asshole

   i will lick your asshole
   
   asshole

   i will lick your asshole

   i will lick your asshole

   i will lick your *beep*

==============================================================================================================

TRACK 9 - Modern Life

[Intro]
   Em Dsus2 x4

[Verse 1]
            Em
   Well you know
                 Dsus2
   They make you want it
            Em               Dsus2
   When you see it on the tv shows
             Em             Dsus2
   And maybe then you might buy it
         Em                      Dsus2
   If it makes you feel home and hosed

[Chorus]
       Em           Em           Em           Em
   You want it, You want it, You want it, You want it
   C                                 D
   Then they try to tell you this is modern life
       Em           Em           Em           Em
   You want it, You want it, You want it, You want it
   C                          D
   No i don't believe this is modern life

[Verse 2]
             Em
   Can't you see
             Dsus2
   That they want us
         Em                         Dsus2
   To be brainwashed into their big schemes
            Em
   So I can tell
         Dsus2
   I see sex sells
              Em               Dsus2
   Cos it's a common reccuring theme

[Chorus]
       Em           Em           Em           Em
   You want it, You want it, You want it, You want it
   C                                 D
   Then they try to tell you this is modern life
       Em           Em           Em           Em
   You want it, You want it, You want it, You want it
   C                          D
   No i don't believe this is modern life
Em
   Bow down to fashion today
C                                   G
   If it's gonna help you feel okay
Em                 
   Bow down to fashion today
C                                       G
   If it's gonna help you feel the same
Em
   Bow down to fashion today
C                                   G
   If it's gonna help you feel okay
Em                 
   Bow down to fashion today
C                                       G
   If it's gonna help you feel the same

[Outro]
Em x8
e|-|----------------------------------------------------|
B|-|----------------------------------------------------|
G|-|-0-0-0-0-0-0-0-0-0-0-0-0-0-0-0-0-0-0-0-0-0-0-0-0----| 
D|-|-0-0-0-0-0-0-0-0-0-0-0-0-0-0-0-0-0-0-0-0-0-0-0-0----| 
A|-|-2-2-2-3-3-3-2-2-2-3-3-3-2-2-2-3-3-3-2-2-2-3-3-3----|
E|-|----------------------------------------------------|

==============================================================================================================

TRACK 10 - Polyester Girl

CAPO on 1st Fret

[Intro]   
e|-|----------------------------------------------------|
B|-|----------------------------------------------------|
G|-|---------------------0-0----------------------------| 
D|-|-0-0-4-4-----0-0-2-2-----------0--------------------| x4
A|-|---------2-2-------------0-0-4----------------------|
E|-|----------------------------------------------------|

[Verse 1]
   D     Bm          Em      A               D Bm Em A        
   All I want you to say is nothing at all
        D    Bm          Em      A               D Bm Em A 
   And all I want you to do is stare at the wall
     D         Bm      Em       A               D Bm Em A 
   I love your plastic hair and plastic eyes
   D              Bm      Em          A               D Bm Em A 
   Marvel at your plastic breasts and plastic thighs

[Chorus]
     D       Bm      Em      A         
e|-|----------------------------------------------------|
B|-|----------------------------------------------------|
G|-|---------------------0-0----------------------------| 
D|-|-0-0-4-4-----0-0-2-2-----------0--------------------| x4
A|-|---------2-2-------------0-0-4----------------------|
E|-|----------------------------------------------------|
                D    Bm
   My polyester girl
      Em     A
   So shiny
                D    Bm
   My polyester girl
      Em     A
   So shiny
                D    Bm
   My polyester girl
      Em     A
   So shiny
                D    Bm
   My polyester girl
      Em     A
   So shiny

[Verse 2]

   D          Bm      Em      A             D Bm Em A  
   You're the perfect guy's accessory

   D        Bm      Em      A            D    Bm        Em A  
   Dangling from my arm for all of the pretty people to see

   D          Bm    Em        A               D Bm Em A  
   Boy's with sassy pouts and perky glee

   D         Bm            Em    A             D     Bm    Em A  
   Great for backstage and entertainment award ceremonies

[Chorus]
     D       Bm      Em      A         
e|-|----------------------------------------------------|
B|-|----------------------------------------------------|
G|-|---------------------0-0----------------------------| 
D|-|-0-0-4-4-----0-0-2-2-----------0--------------------| x4
A|-|---------2-2-------------0-0-4----------------------|
E|-|----------------------------------------------------|
                D    Bm
   My polyester girl
      Em     A
   So shiny
                D    Bm
   My polyester girl
      Em     A
   So shiny
                D    Bm
   My polyester girl
      Em     A
   So shiny
                D    Bm
   My polyester girl
      Em     A
   So shiny

[Bridge]
   Bm       D     G    Cm       Bm        D G Cm                  
   Took you for a ride up in an aeroplane
   Bm       D     G    Cm          Bm         D G Cm   
   But your body burst and left an ugly stain
   Bm       D        G    Cm           Bm       D G Cm   
   Had to take your pieces back to the factory
      N.C.  
   It took them several weeks to get you back to me

[Chorus]
     D       Bm      Em      A         
e|-|----------------------------------------------------|
B|-|----------------------------------------------------|
G|-|---------------------0-0----------------------------| 
D|-|-0-0-4-4-----0-0-2-2-----------0--------------------| x4
A|-|---------2-2-------------0-0-4----------------------|
E|-|----------------------------------------------------|
                D    Bm
   My polyester girl
      Em     A
   So shiny
                D    Bm
   My polyester girl
      Em     A
   So shiny
                D    Bm
   My polyester girl
      Em     A
   So shiny
                D    Bm
   My polyester girl
      Em     A
   So shiny
                D    Bm
   My polyester girl
      Em     A
   So shiny
                D    Bm
   My polyester girl
      Em     A
   So shiny
                D    Bm
   My polyester girl
      Em     A
   So shiny
                D    Bm
   My polyester girl
      Em     A
   So shiny
                D    Bm
   My polyester girl
      Em     A
   So shiny
                D    Bm
   My polyester girl
      Em     A
   So shiny
                D    Bm
   My polyester girl
      Em     A
   So shiny
                D    Bm
   My polyester girl
      Em     A
   So shiny...

==============================================================================================================

TRACK 11 - 1234

   1234!
   Random chord of your choice for a spilt second
   Ooooh!
   Random chord of your choice for a spilt second
   Ooooh! 
   Random chord of your choice for a spilt second
   Aaahh!

   Gm     Am 
   Random Incomprehensible Jibberish
   Gm     Am
   Random Incomprehensible Jibberish
   Gm     Am
   Random Incomprehensible Jibberish
   Fm     Gm
   Random Incomprehensible Jibberish
   Gm     Am 
   Random Incomprehensible Jibberish
   Gm     Am
   Random Incomprehensible Jibberish
   Gm     Am
   Random Incomprehensible Jibberish
   Fm     Gm
   Random Incomprehensible Jibberish

e|-|-13-13-13-12-11-11-11-12--------------------------|
B|-|-11-11-11-10-9--9--9--10--------------------------|
G|-|--------------------------------------------------| 
D|-|--------------------------------------------------| x4 
A|-|--------------------------------------------------|
E|-|--------------------------------------------------|

   Em
   Random Incomprehensible Jibberish
   Em
   Random Incomprehensible Jibberish
   Em
   Random Incomprehensible Jibberish
   Em
   Random Incomprehensible Jibberish

   Random chord of your choice for a spilt second
   Ooooh!
   Random chord of your choice for a spilt second
   Ooooh! 
   Random chord of your choice for a spilt second
   Woooooooh!
   Random chord of your choice for a spilt second
   Aaahh!

   Gm     Am 
   Random Incomprehensible Jibberish
   Gm     Am
   Random Incomprehensible Jibberish
   Gm     Am
   Random Incomprehensible Jibberish
   Fm     Gm
   Random Incomprehensible Jibberish
   Gm     Am 
   Random Incomprehensible Jibberish
   Gm     Am
   Random Incomprehensible Jibberish
   Gm     Am
   Random Incomprehensible Jibberish
   Fm     Gm
   Random Incomprehensible Jibberish

==============================================================================================================

TRACK 12 - Mr T

[Intro]
e|-|--/6-5-3---6-5-3-0-3-------|------------------------------------------|
B|-|---------------------3-5---|----5---5---5----5-----5---5---5----5-----|
G|-|---------------------------|--------------2------------------2--------| 
D|-|---------------------------|-------------------2-2----------------2-2-| x4 
A|-|---------------------------|------------------------------------------|
E|-|---------------------------|----7-10-7--0-3-0------7-10-7--0-3-0------|

[Verse 1]
e|-|--------------------------------------------------------------------------|
B|-|--------------------------------------------------------------------------|
G|-|--------------------------------------------------------------------------| 
D|-|--------------------------------------------------------------------------|  
A|-|--------------------------------------------------------------------------|
E|-|-7-10-7----0-3-0----7-10-7----0-3-0----7-10-7----0-3-0----7-10-7----0-3-0-|

   Keep pushing straight ahead

   I've learnt from the past that there's no time to regret

   The woman makes me feel alive

   She shines in the night to open up my eyes

e|-|--------------------------------------------------------------------------|
B|-|--------------------------------------------------------------------------|
G|-|--------------------------------------------------------------------------| 
D|-|------------------------/7-5-/7-5---2-------------------------------------|  
A|-|---------------------2----------------------------------------------------|
E|-|-7-10-7----0-3-0----------------------------------------------------------|

                        She helps me realize
[Chorus]
e|-|--------------------------------------------------------------------------|
B|-|--------------------------------------------------------------------------|
G|-|-----------------------------4-7-9-9-7-4-2-7-4---4-4----------------------| 
D|-|-2-5-7-/8-\7--5-2-5-2---2-2-----------------------------------------------| x2  
A|-|--------------------------------------------------------------------------|
E|-|--------------------------------------------------------------------------|

e|-|------------------------------------------|
B|-|----5---5---5----5-----5---5---5----5-----|
G|-|--------------2------------------2--------| 
D|-|-------------------2-2----------------2-2-| x4 
A|-|------------------------------------------|
E|-|----7-10-7--0-3-0------7-10-7--0-3-0------|

[Verse 3]
e|-|--------------------------------------------------------------------------|
B|-|--------------------------------------------------------------------------|
G|-|--------------------------------------------------------------------------| 
D|-|--------------------------------------------------------------------------|  
A|-|--------------------------------------------------------------------------|
E|-|-7-10-7----0-3-0----7-10-7----0-3-0----7-10-7----0-3-0----7-10-7----0-3-0-|

   So I run to the streets kicking 'round on my feet

   I take freedoms path and I'll let my life be

   Soul dedication to all my realities

   Set your sisters free

e|-|--------------------------------------------------------------------------|
B|-|--------------------------------------------------------------------------|
G|-|--------------------------------------------------------------------------| 
D|-|---------------------------/7-5-/7-5---2----------------------------------|  
A|-|------------------------2-------------------------------------------------|
E|-|-7-10-7----0-3-0----------------------------------------------------------|

                      It's the way it's meant to be

[Chorus]
e|-|--------------------------------------------------------------------------|
B|-|--------------------------------------------------------------------------|
G|-|-----------------------------4-7-9-9-7-4-2-7-4---4-4----------------------| 
D|-|-2-5-7-/8-\7--5-2-5-2---2-2-----------------------------------------------| x2  
A|-|--------------------------------------------------------------------------|
E|-|--------------------------------------------------------------------------|

e|-|------------------------------------------|
B|-|----5---5---5----5-----5---5---5----5-----|
G|-|--------------2------------------2--------| 
D|-|-------------------2-2----------------2-2-| x4 
A|-|------------------------------------------|
E|-|----7-10-7--0-3-0------7-10-7--0-3-0------|

[Bridge] 
e|-|-/12--/12--12-10-----------------/12--/12--12-10-----------10-----/12--/12--12-10-----------10--------|
B|-|-----------------12-11-10-8----------------------12-10--12------------------------12-10--12-----------|
G|-|-----------------------------9-9------------------------------9-9------------------------------9-9----| 
D|-|------------------------------------------------------------------------------------------------------|   
A|-|------------------------------------------------------------------------------------------------------|
E|-|------------------------------------------------------------------------------------------------------|

e|-|----------------------------------------------------|
B|-|----------------------------------------------------|
G|-|----------------------------------------------------| 
D|-|-----/7-5-/7-5---2----------------------------------|  
A|-|--2-------------------------------------------------|
E|-|----------------------------------------------------|

         Set your sisters free

[Outro]
e|-|-12--12--12--12--12-10-12-13---12--12--12--12--12-10-12-13---|
B|-|-------------------------------------------------------------|
G|-|-------------------------------------------------------------| 
D|-|-----------------------------------------------/7-5-/7-5---2-|  x4 
A|-|-------------------------------------------------------------|
E|-|-------------------------------------------------------------|

                                                   Set your sisters free

==============================================================================================================

TRACK 13 - Just Another Beautiful Story

[Intro]
e|-------2--5-----5--3--2----------------------------------------------------|
B|-3--5----------------------------------------------------------------------|
G|-------------3-------------------------------------------------------------|   x4
D|---------------------------------------------------------------------------|
A|---------------------------------------------------------------------------|
E|---------------------------------------------------------------------------|

[Intro/Verse]
e|-2--2--2--2--2--2--2--2----------------------------------------------------|
B|-3--3--1--1--0--0--3--3----------------------------------------------------|
G|-2--2--2--2--2--2--3--3----------------------------------------------------| x4
D|---------------------------------------------------------------------------|
A|---------------------------------------------------------------------------|
E|---------------------------------------------------------------------------|

   all that i am and all i'll ever be is a brain in a body

   and all that i know and all i'll ever see are the real things around me

[Pre Chorus]
G A D        C              G    
    All I've heard and it's true,
  A D                 C               G
    There ain't no God there's just me and you.
  A   D              C               G
    I don't see a point to this place,
  A         D           C             G
    But I'm happy to be floating in space...

[Chorus]
   D       C              G          A
   I won't mind if you're holding my hand,
   D             C             G           A
   Life seems so fine when you don't understand it.
        D           C            G             A
   The world turns around and it don't give a damn
         D        C            G               A
   if we all die away and we never come back again.

[Verse 2]
e|-------2--5-----5--3--2----------------------------------------------------|
B|-3--5----------------------------------------------------------------------|
G|-------------3-------------------------------------------------------------|   x4
D|---------------------------------------------------------------------------|
A|---------------------------------------------------------------------------|
E|---------------------------------------------------------------------------|

e|-2--2--2--2--2--2--2--2----------------------------------------------------|
B|-3--3--1--1--0--0--3--3----------------------------------------------------|
G|-2--2--2--2--2--2--3--3----------------------------------------------------|
D|---------------------------------------------------------------------------|
A|---------------------------------------------------------------------------|
E|---------------------------------------------------------------------------|

   all that I am and all i'll ever be is a brain in a body

   live til I die and then run away, it's a beautiful story

[Pre Chorus]
G A D        C              G    
    All I've heard and it's true,
  A D                 C               G
    There ain't no God there's just me and you.
  A   D              C               G
    I don't see a point to this place,
  A         D           C            G
    But I'm happy to be floating in outer space...

[Chorus]
   D       C              G          A
   I won't mind if you're holding my hand,
   D             C             G           A
   Life seems so fine when you don't understand it.
        D           C            G             A
   The world turns around and it don't give a damn
         D        C            G               A
   if we all die away and we never come back again.

[Outro]
e|-------2--5-----5--3--2----------------------------------------------------|
B|-3--5----------------------------------------------------------------------|
G|-------------3-------------------------------------------------------------|   x4
D|---------------------------------------------------------------------------|
A|---------------------------------------------------------------------------|
E|---------------------------------------------------------------------------|

==============================================================================================================

***********************************

| /   Slide up
| \   Slide down
| h   Hummer-on
| p   Pull-off
| b   Bend

***********************************
Suggest correction
Creating personal tab
Creating personal tab
You can edit any tab online and save it as your Personal.

You can edit, replace or remove any tab part or add personal notes – all changes will be seen only by you.

Personal tabs can be accessed anytime from any device, even offline.
Learn more »
Give kudos to tab author, rate the tab!
1 2 3 4 5
comments
print report bad tab
guest
You may want to rate the tab now too:
select rating
Wanna post a correction for this tab? Suggest correction