Oops, an error
Loading. Please wait.

Bartender Tab

version 2
version 2

Whole song

20,199 views 15 this week
no commentswrite comment
1 2 3 4 5
1 last vote to show rating
add to favorites
launch autoscroll
font size
0
reset
how to read this tab
guitar tuner
Autoscroll
slow
fast
+/-
esc
set tempo
stop
Help us to improve Ultimate-Guitar.com Take our survey!
×
Bartender Tab
By S.Buffett
Standard Tuning

Intro
|----------------------------------------------------0-0-0-0-0-0---||
|----------5-5-5-5----------------4-4-4-4------------2-2-3-2-3-2---||
|----------6-4-6-4----6--8--6--4--6^4-6-4-------4----2-2-2-2-2-2---||
|----2--6------------------------------------6-------2-2-2-2-2-2---||
|----------------------------------------------------0-0-0-0-0-0---||
|------------------------------------------------------------------||

   
|------------------------------------------------------------------||
|-----4-4-5-4------------------------------------------------------||
|--2--4-4-4-4------------------------------------------------------||
|--2--4-4-4-4------------------------------------------------------||
|--0--2-2-2-2------------------------------------------------------||
|------------------------------------------------------------------||




Verse                           p
|----------------------------0-2-0---------------------------------||
|------7-----------5-4-------2-----2-------------5-4---------------||
|--------9-------------------2-------2---------4-----4-------------||
|----9-----------4-----------2---------------4---------4-----------||
|--7-----------2-------------0-------------2-----------------------||
|------------------------------------------------------------------||

  

 

|----------------------------------------------------0-0-0-0-0-0---||
|---------4-5-5-5-5----------------4-4-4-4-----------2-2-3-2-3-2---||
|---------5-6-4-6-4----6--8--6--4--6^4-6-4------4----2-2-2-2-2-2---||
|----2--6------------------------------------6-------2-2-2-2-2-2---||
|----------------------------------------------------0-0-0-0-0-0---||
|------------------------------------------------------------------||

   
|------7---5--4--2-0-----------------------------------------------||
|-------7---5--5--4-0----------------------------------------------||
|--4/8-------------------------------------------------------------||
|------------------------------------------------------------------||
|------------------------------------------------------------------||
|------------------------------------------------------------------||
Suggest correction
Give kudos to tab author, rate the tab!
1 2 3 4 5
comments
print report bad tab
guest
You may want to rate the tab now too:
select rating
Wanna post a correction for this tab? Suggest correction