Oops, an error
Loading. Please wait.

Red Water Bass

by Rehab
1,456 views 3 this week
no commentswrite comment
1 2 3 4 5
3 more votes to show rating
add to favorites
launch autoscroll
font size
0
reset
guitar tuner
×
Best way to learn
"Red Water"
Autoscroll
slow
fast
+/-
esc
set tempo
stop
Author
Difficulty
novice
--------------------------------------------------------------------------
                            RED WATER - Rehab
--------------------------------------------------------------------------

Here are the basic chords - you can build off of this.....

G|------------------------------------------------------------------------|
D|------------------------------------------------------------------------|
A|-------4-------0---2----------------------------------------------------|
E|---0-------4------------------------------------------------------------|

Bridge:

G|------------------------------------------------------------------------|
D|------------------------------------------------------------------------|
A|-------0-------2--------------------------------------------------------|
E|---4-------0------------------------------------------------------------|
Suggest correction
Give kudos to tab author, rate the tab!
1 2 3 4 5
comments
print report bad tab
guest
You may want to rate the tab now too:
select rating
Wanna post a correction for this tab? Suggest correction