Oops, an error
Loading. Please wait.

Red Water Tab

version 1
version 1

Whole song

4,145 views 3 this week
no commentswrite comment
1 2 3 4 5
please rate
add to favorites
launch autoscroll
font size
0
reset
how to read this tab
guitar tuner
Autoscroll
slow
fast
+/-
esc
set tempo
stop
Help us to improve Ultimate-Guitar.com Take our survey!
×
Author
Difficulty
intermediate
Red Water - Rehab


No one had posted a good set of tabs for this song so I did it by ear. If you 
notice anything thats off let me know and I will fix it.

Standard Tuning
   (EADGBe)
  
   Chords Used
   E  C#m G#m  A   B   E
e|-7---4---4---5---7---0-|
B|-9---5---4---5---7---0-|
G|-9---6---4---6---8---1-|
D|-9---6---5---7---9---2-|
A|-7---4---5---7---9---2-|
E|---------4---5---7---0-|


      Verse 1,2&3
e|--------------------5~--------------4~-------7~|
B|---------9~---------5~-5h7p5--------4~-------7~|
G|------9-9--------6-6----------------4~----6--8~|  
D|-----9-9--------6-6--------------6-6-----7~--9~|
A|--7~~~~~~~~/-4-~~~~~~~----------6-6-----7~~--9~|
E|-----------------------------4~~~~~~~~-5~~~--7~|
                                Slow Downstroke^


e|--------------------5~--------------4~-------7~|
B|---------9~---------5~--------------4~-------7~|
G|------9-9--------6-6----------------4~----6--8~|  
D|-----9-9--------6-6--------------6-6-----7~--9~|
A|--7~~~~~~~~--4-~~~~~~~----------6-6-----7~~--9~|
E|-----------------------------4~~~~~~~~-5~~~--7~|                                              
                                Slow Downstroke^
            
e|---------9//-5------5~--------------4~-------7~|
B|---------9//-5------5~--------------4~-------7~|
G|------9-9----6---6-6----------------4~----6--8~|  
D|-----9-9-----6--6-6--------------6-6-----7~--9~|
A|--7~~~~~~~~--4-~~~~~~~----------6-6-----7~~--9~|
E|-----------------------------4~~~~~~~~-5~~~--7~|
 Light Upstroke^                Slow Downstroke^
 but normal on 
 the A string


e|----------------------5~------------4~-------7~|
B|---------9~-----------5~------------4~-------7~|
G|------9-9----------6-6--------------4~----6--8~|  
D|-----9-9----------6-6------------6-6-----7~--9~|
A|--7~~~~~~~~7-6-4-~~~~~~~--------6-6-----7~~--9~|
E|-----------------------------4~~~~~~~~-5~~~--7~|
                                Slow Downstroke^



e|-------|             |-4--5--0--7-| Strumming Pattern
B|-------| Just strum  |-4--5--0--7-| D DU UDUD DU UDUD
G|-8-6-4-| these chords|-4--6--1--8-|
D|-9-7-5-|   ---->     |-5--7--2--9-|
A|-9-7-5-|             |-5--7--2--9-|
E|-7-5-4-|             |-4--5--0--7-|

      Chorus
Just strum these chords.

   E  C#m G#m  A   B
e|-0---4---4---5---7-|      Strumming Pattern 
B|-0---5---4---5---7-|      D DU UDUD DU UDUD
G|-1---6---4---6---8-|
D|-2---6---5---7---9-|
A|-2---4---5---7---9-|
E|-0-------4---5---7-|

      Solo
e|--14b(16)-14b(16)r-12~-1212-11-12-11-12-11-12-11------------|
B|------------------------------------------------12-12\14-12~|
G|------------------------------------------------------------|
D|------------------------------------------------------------|
A|------------------------------------------------------------|
E|------------------------------------------------------------|


e|-------------------------------12----1212-11-12-11-12-14-12-|
B|-10-121212--12-12\14-12-10-9~-9--12~~-----------------------|
G|------------------------------------------------------------|
D|------------------------------------------------------------|
A|------------------------------------------------------------|
E|------------------------------------------------------------|


e|-11---------------------------------------------------------|
B|---12-12\14-12---9-10-12-10-9h10p9-7-9-7h9p7----------------|
G|---------------------------------------------9-8-6----------|
D|---------------------------------------------------9-7-6----|
A|---------------------------------------------------------9-7|
E|------------------------------------------------------------|


Verse 1
Chorus
Verse 2
Chorus
Verse 3
Chorus x3


Legend
  ~|Let Ring
 //|Really Fast Slide up the Neck

Tabbed By: Hicvilscatr
Suggest correction
Give kudos to tab author, rate the tab!
1 2 3 4 5
comments
print report bad tab
guest
You may want to rate the tab now too:
select rating
Please do not post tabs as comments. Select "correction" instead!