Oops, an error
Loading. Please wait.

Sittin At A Bar Tab

version 1
version 1

Whole song

46,178 views 21 this week
1 commentread comment
1 2 3 4 5
accurate
x 4
add to favorites
launch autoscroll
font size
0
reset
how to read this tab
guitar tuner
Autoscroll
slow
fast
+/-
esc
set tempo
stop
Help us to improve Ultimate-Guitar.com Take our survey!
×
Author
Difficulty
intermediate
----------------------------------------------------------------------------
                             Sittin' At a Bar - Rehab
----------------------------------------------------------------------------
Tabbed by: Cole Peyton
Email: Coal7693@yahoo.com

Tuning: Standard

  Intro
         D                           A
e|-------------------------------------------------------------------------|
B|--------3---3-3------------------2---2-2----------------5/7-5-5/7-5------|
G|--------2h4-2-2h4--4--4/6--4--2--2h4-2-2h4-----2--0-----2/4-2-2/4-2------|
D|--0--4--------------------------------------4--------0-------------------|
A|-------------------------------------------------------------------------|
E|-------------------------------------------------------------------------|
               A
e|-------------------------------------------------------------------------|
B|-------------------------------------------------------------------------|
G|-----------2-2---2-2-----2-2---2-----------------------------------------|
D|X0---------2-2h4-2-2h4p2-2-2h4-2-----------------------------------------|
A|0-------0----------------------------------------------------------------|
E|0--X0--------------------------------------------------------------------|
                       Bartender, I

  Verse

         D                D                    D                D
e|-------------------------------------------------------------------------|
B|--------3----------------3----3------------------3----------------3----3-|
G|--------2----------------2h4--2---------------2--2-------------2--2h4--2-|
D|--0--4-------------0--4--------------------4----------------4------------|
A|-------------------------------------------------------------------------|
E|-------------------------------------------------------------------------|
      Really did it this time,    Broke my parole to have a good time, when
            A                                  F# (Power Chord)
e|-------------------------------------------------------------------------|
B|-------------------------------------------------------------------------|
G|-----4--2--------------4--2~---------------------------------------------|
D|--2-----2h4--------2------2~---------------------------------------------|
A|----------------------------------------------4--2----------2--2------2--|
E|-------------------------------------------2-----2h4--------2--2h4p2--2--|
      I got home it was 6 AM,        The door was locked, so I kicked it in,
         D                D                    D                D
e|-------------------------------------------------------------------------|
B|--------3----------------3----3------------------3----------------3----3-|
G|--------2----------------2h4--2---------------2--2-------------2--2h4--2-|
D|--0--4-------------0--4--------------------4----------------4------------|
A|-------------------------------------------------------------------------|
E|-------------------------------------------------------------------------|
She was trippin' on the bills, I think she was high on some pills, she threw my
            A                                  F# (Power Chord)
e|-------------------------------------------------------------------------|
B|-------------------------------------------------------------------------|
G|-----4--2--------------4--2~---------------------------------------------|
D|--2-----2h4--------2------2~---------------------------------------------|
A|----------------------------------------------4--2---------2--2------2---|
E|-------------------------------------------2-----2h4-------2--2h4p2--2---|
Shit out into the yard, Then she called me a bum and slapped me real hard, and
         D                D                    D                D
e|-------------------------------------------------------------------------|
B|--------3----------------3----3------------------3----------------3----3-|
G|--------2----------------2h4--2---------------2--2-------------2--2h4--2-|
D|--0--4-------------0--4--------------------4----------------4------------|
A|-------------------------------------------------------------------------|
E|-------------------------------------------------------------------------|
      In my drunken stuper,        I did what I should've never done, now I'm
            A                                  F# (Power Chord)
e|-------------------------------------------------------------------------|
B|-------------------------------------------------------------------------|
G|-----4--2--------------4--2~---------------------------------------------|
D|--2-----2h4--------2------2~---------------------------------------------|
A|----------------------------------------------4--2---------2--2------2---|
E|-------------------------------------------2-----2h4-------2--2h4p2--2---|
      Sittin' here, talkin' to you,     Drunk and on the run, I'm sittin  at a

  Chorus

   D
  Bar on the inside, waitin' for my
   A
  Ride on the outside, she broke my
   G
  Heart in the trailer park, so I
   C
  Jacked the keys to her fuckin' car,
   A
  And crashed that piece of shit


  Interlude

         D                           A
e|-------------------------------------------------------------------------|
B|--------3---3-3------------------2---2-2----------------5/7-5-5/7-5--7---|
G|--------2h4-2-2h4--4--4/6--4--2--2h4-2-2h4-----2--0-----2/4-2-2/4-2--4---|
D|--0--4--------------------------------------4--------0-------------------|
A|-------------------------------------------------------------------------|
E|-------------------------------------------------------------------------|
And then stepped away
            A
e|-------------------------------------------------------------------------|
B|-------------------------------------------------------------------------|
G|-----------2-2---2-2-----2-2---2-----------------------------------------|
D|X0---------2-2h4-2-2h4p2-2-2h4-2-----------------------------------------|
A|0-------0----------------------------------------------------------------|
E|0--X0--------------------------------------------------------------------|
                     Ya Know, Mo, I'll

  Verse

         D                D                    D                D
e|-------------------------------------------------------------------------|
B|--------3----------------3----3------------------3----------------3----3-|
G|--------2----------------2h4--2---------------2--2-------------2--2h4--2-|
D|--0--4-------------0--4--------------------4----------------4------------|
A|-------------------------------------------------------------------------|
E|-------------------------------------------------------------------------|
    Probably get ten years, So just give me beers 'till they get here, yeah I
            A                                  F# (Power Chord)
e|-------------------------------------------------------------------------|
B|-------------------------------------------------------------------------|
G|-----4--2--------------4--2~---------------------------------------------|
D|--2-----2h4--------2------2~---------------------------------------------|
A|----------------------------------------------4--2---------2--2------2---|
E|-------------------------------------------2-----2h4-------2--2h4p2--2---|
Know the sun is comin' up, and Y'all are probably gettin' ready for closin' up
         D                D                    D                D
e|-------------------------------------------------------------------------|
B|--------3----------------3----3------------------3----------------3----3-|
G|--------2----------------2h4--2---------------2--2-------------2--2h4--2-|
D|--0--4-------------0--4--------------------4----------------4------------|
A|-------------------------------------------------------------------------|
E|-------------------------------------------------------------------------|
      But I'm tryin' to drown my soul,   I'm tired of this life on a dirt road
            A                                  F# (Power Chord)
e|-------------------------------------------------------------------------|
B|-------------------------------------------------------------------------|
G|-----4--2--------------4--2~---------------------------------------------|
D|--2-----2h4--------2------2~---------------------------------------------|
A|----------------------------------------------4--2----------2---2------2-|
E|-------------------------------------------2-----2h4--------2---2h4p2--2-|
Everything that I love is gone, And I'm tired of hanging on, she got me sittin at a

  Chorus

   D
  Bar on the inside, waitin' for my
   A
  Ride on the outside, she stole my
   G
  Heart in the trailer park, so I
   C
  Jacked the keys to her fuckin' car,
   A
  And crashed that piece of shit


  Bridge


         D                           A
e|-------------------------------------------------------------------------|
B|--------3---3-3------------------2---2-2----------------5/7-5-5/7-5------|
G|--------2h4-2-2h4--4--4/6--4--2--2h4-2-2h4-----2--0-----2/4-2-2/4-2------|
D|--0--4--------------------------------------4--------0-------------------|
A|-------------------------------------------------------------------------|
E|-------------------------------------------------------------------------|
And the stepped away
Guess it was meant to be, romance is misery so watch for memories, now I'm headin' to 
penitentiary
               A
e|-------------------------------------------------------------------------|
B|-------------------------------------------------------------------------|
G|-----------2-2---2-2-----2-2---2-----------------------------------------|
D|X0---------2-2h4-2-2h4p2-2-2h4-2-----------------------------------------|
A|0-------0----------------------------------------------------------------|
E|0--X0--------------------------------------------------------------------|
See me on TV the next Cop series, I am a danger I guess I shoulda did something about my anger
         D                           A
e|-------------------------------------------------------------------------|
B|--------3---3-3------------------2---2-2----------------5/7-5-5/7-5------|
G|--------2h4-2-2h4--4--4/6--4--2--2h4-2-2h4-----2--0-----2/4-2-2/4-2------|
D|--0--4--------------------------------------4--------0-------------------|
A|-------------------------------------------------------------------------|
E|-------------------------------------------------------------------------|
But I never learn, real things I don't concern, pour kerosine on everything I love and 
it burn
             A
e|-------------------------------------------------------------------------|
B|-------------------------------------------------------------------------|
G|-----------2-2---2-2-----2-2---2-----------------------------------------|
D|X0---------2-2h4-2-2h4p2-2-2h4-2-----------------------------------------|
A|0-------0----------------------------------------------------------------|
E|0--X0--------------------------------------------------------------------|
It was my fault, but I wasn't happy it was over, She threw a fit, so I crashed that 
of shit Nova
       And now I'm
  D
  Goin' back again, back to the
   A
  Pen to see my friends,when we
   G
  All pile out that county van, they'll
   A
  Ask me where I've been, I've been at a


  Chorus

   D
  Bar on the inside, waitin' for my
   A
  Ride on the outside, she broke my
   G
  Heart in the trailer park, so I
   C
  Jacked the keys to her fuckin' car,
   A
  I crashed that piece of shit

  And then stepped away
               (Repeatx4)

| /  slide up
| \  slide down
| h  hammer-on
| p  pull-off
| ~  vibrato
| +  harmonic
| x  Mute note
===============================================================================
Suggest correction
comments
print report bad tab
1 comment total.
0 reply
zacn14 52 wrote on August 22 2008, 03:28 am

hey this needs to be played with a capo on the 2nd fret but other then that its great. o btw the F# is a G.

guest
You may want to rate the tab now too:
select rating
Wanna post a correction for this tab? Suggest correction