Oops, an error
Loading. Please wait.

Sittin At A Bar Chords

version 2
version 2

Whole song

124,534 views 180 this week
10 commentsread comments
1 2 3 4 5
x 31
add to favorites
launch autoscroll
font size
0
reset
transpose
0
reset
display chords
guitar tuner
Autoscroll
slow
fast
+/-
esc
set tempo
stop
Help us to improve Ultimate-Guitar.com Take our survey!
×
Author
Difficulty
Capo
novice
1st fret
----------------------------------------------------------------------------
                           Sittin' at a Bar by Rehab
----------------------------------------------------------------------------
Tabbed by:Jake Carpenter
Email:Jake_MTDew@hotmail.com

Tuning:Standard
CAPO 1st or 2nd fret(Ihave heard two different versions of the song and it alternates 
the two)


[INTRO] (I have seen this played differently before also, I will only tab the way I learned)

e|---------------------------------------------------------------|
B|--------3-------3--------------2-------2-------2---------------|
G|--------2h4--2--2h4--2--4-4/6--2h4--2--2h4--2--2h4--2---2------|
D|--0-2/4-----------------------------------------------4--------|
A|---------------------------------------------------------------|
E|---------------------------------------------------------------|

e|--------------------0-00-000---|
B|--3-3-3-3-3-3-33----2-22-222---|
G|--0-0-0-0-0-0-00----2-22-222---|
D|--0-0-2-0-2-0-00----2-22-222---|
A|--2-2-3-2-3-2-22----0-00-000---|
E|--3-3---3---3-33---------------|


[Verse 1]

             D
Bar tender I really did it this time
           A
Broke my parole to have a good time
      G
When I got home it was 6 a.m.
      A
The door was locked so I kicked it in
          D
She was trippin on the bills
                  A
I think she was high on some pills
              G
She threw my shit out into the yard
            A
Then she called me a bum and slapped me real hard
     D
And in my drunkin stooper
              A
I did what I should of never done
          G
Now I'm sittin here talking to you
A
Drunk and on the Run


[Chorus]

                 D
I'm sittin at a bar on the inside
                A
Waiting for my ride on the outside
                G
She broke my heart in the trailer park
       C
So I jacked the keys to her fuckin car
       A
And crashed that piece of shit

And then stepped away


[Instrumental] (I have seen this played differently before also, I will only tab the way I learned)

e|---------------------------------------------------------------|
B|--------3-------3--------------2-------2-------2---------------|
G|--------2h4--2--2h4--2--4-4/6--2h4--2--2h4--2--2h4--2---2------|
D|--0-2/4-----------------------------------------------4--------|
A|---------------------------------------------------------------|
E|---------------------------------------------------------------|

e|--------------------0-00-000---|
B|--3-3-3-3-3-3-33----2-22-222---|
G|--0-0-0-0-0-0-00----2-22-222---|
D|--0-0-2-0-2-0-00----2-22-222---|
A|--2-2-3-2-3-2-22----0-00-000---|
E|--3-3---3---3-33---------------|


[Verse 2]

                    D
You know Mo I'll probably get ten years
                 A
So just give me beers till they get here
         G
Yeah I know the sun is comin up
                 A
And y'all are probably getting ready for closing up
          D
But I'm trying to drown my soul
                   A
I'm tired of this life on a dirt road
              G
And everything that I love is gone
          A
And I'm tired of hangin on


[Chorus]

                       D
She got me sittin at a bar on the inside
              A
Waitin for my ride on the outside
             G
She stole my heart in the trailer park
       C
So I jacked the keys to her fuckin car
  A
Crashed that piece of shit

And then stepped away


[Verse 3]

               D
Guess it was meant to be

Romance is misery
             A
So much for memories

And now I'm headed to the penitentary
          G
See me on T.V.

The next cop series

I Am A danger
   A
I guess I should've did something about my anger
           D
But I'll never learn

Real things I don't concern
          A
I poor kerosene on everything I love and watch it burn
            G
I know it's my fault

But I wasn't happy it was over
      A
She threw a fit so I crashed that piece a shit nova

              D
And now I'm goin back again
             A
Back to the pen to see my friends
             G
And when we all pile out that county van
          A
They'll ask me where I've been


[Chorus] (Repeat as many times as needed):

                D
I've been at a bar on the inside
               A
Waitin for my ride on the outside
                G
She broke my heart in the trailer park
       C
So I jacked the keys to her fuckin car
A
I crashed that piece of shit

And then stepped away


Thanx for checkin out my tab!:) Hope it works for you.  Be sure to leave a comment or correction.


**************************************************

| /  slide up
| \  slide down
| h  hammer-on
| p  pull-off
| ~  vibrato
| +  harmonic
| x  Mute note

**************************************************
Suggest correction
comments
print report bad tab
10 comments total. Showing first comments.
0 reply
Newsboys6 10 Nov 22, 2008 09:31 PM

Thanks *****

0 reply
inman 51 Nov 24, 2008 06:09 AM

good..... i like it.

0 reply
KWA snooopy 30 Jan 10, 2009 07:27 PM

good tad like it a lot

guest
You may want to rate the tab now too:
select rating
Wanna post a correction for this tab? Suggest correction