Oops, an error
Loading. Please wait.

Sittin In A Bar Tab

version 2
version 2

Whole song

4,919 views 1 this week
no commentswrite comment
1 2 3 4 5
please rate
add to favorites
launch autoscroll
font size
0
reset
how to read this tab
guitar tuner
Autoscroll
slow
fast
+/-
esc
set tempo
stop
Help us to improve Ultimate-Guitar.com Take our survey!
×
Author
Difficulty
novice
-------------------------------------------------------------------------------
                             Rehab - Sittin in a bar
-------------------------------------------------------------------------------
Tabbed by:Michael Gaddy
Email:Bamafan201@aol.com

Tuning: Standard
  Intro:
e|-----------------------------------------------------------------------------|
B|-----------------------------------------------------------------------------|
G|------------9-------9----9-------9-------------------9-------9---------------|
D|------------9h11----9----9h11----9----11----11/13----9h11----9---------------|
A|------11---------------------------------------------------------------------|
E|--12-------------------------------------------------------------------------|

e|---------------------------------------------------------------------------|
B|---------------------------------------------------------------------------|
G|--9-------9----9-------9----------------9-------9/11---9---9/11---9--------|
D|--9h11----9----9h11----9----------9--------7----7/9----7---7/9----7--------|
A|----------------------------11---------------------------------------------|
E|---------------------------------------------------------------------------|

e|---x-----------------------------------------------------------------------|
B|---x-----------------------------------------------------------------------|
G|---x-----------------------------------------------------------------------|
D|---9-----------------------------------------------------------------------|
A|---9------7-----7---7-----7---7-----7--------------------------------------|
E|---7------7h9---7---7h9---7---7h9---7--------------------------------------|
 verse:1     Bartender I really done it this time...
e|-----------------------|
B|-----------------------|
G|------------9-----9----| x2
D|------------9h11--9----|
A|-------11--------------|
E|---12------------------|

e|------------------------|
B|------------------------|
G|-----------9------9-----| x2
D|------9----9h11---9-----|
A|---11-------------------|
E|------------------------|

e|-------------------------------|
B|-------------------------------|
G|------9---7-----7--------------|
D|---7------7h9---7---let ring---|
A|-------------------------------|
E|-------------------------------|

e|--------------------------------|
B|--------------------------------|
G|--------------------------------|Repeat throughout verse
D|--------------------------------|
A|------9---7-----7---7-----7-----|
E|---7------7h9---7---7h9---7-----|
   ...and then stepped away

   Back to intro.

         Rythem chords

    E         B         A       B
e|--12--------7---------5-------7--------------------------------------------|
B|--12--------7---------5-------7--------------------------------------------|
G|--13--------8---------6-------8--------------------------------------------|
D|--14--------9---------7-------9--------------------------------------------|
A|--14--------9---------7-------9--------------------------------------------|
E|--12--------7---------5-------7--------------------------------------------|


| /  slide up
| \  slide down
| h  hammer-on
| p  pull-off
| ~  vibrato
| +  harmonic
| x  Mute note
===============================================================================
Suggest correction
Give kudos to tab author, rate the tab!
1 2 3 4 5
comments
print report bad tab
guest
You may want to rate the tab now too:
select rating
Wanna post a correction for this tab? Suggest correction