Oops, an error
Loading. Please wait.

Sitting At A Bar Tab

version 1
version 1

Intro

Whole song

15,071 views 18 this week
no commentswrite comment
1 2 3 4 5
please rate
add to favorites
launch autoscroll
font size
0
reset
how to read this tab
guitar tuner
Tab Pro tools
  • play this tab
  • loop segment
  • change instrument
  • show fretboard
  • metronome
Autoscroll
slow
fast
+/-
esc
set tempo
stop
Contributor
I've seen the intro tabs for the song, but they are all wrong.
So I just went ahead and figured it out myself.

Tuning: Standard (E A D G B E)

Key: ^ = real fast hammer on
    PM = Palm Mute
    () = let ring
|-----------------------------------------------------------5-5-5-5----||
|----------5---5-5---5-------------4---4-4---4--------------7-5-7-5----||
|----------4^6-4-4^6-4-6--8--6--4--4^6-4-4^6-4----4---------7-6-7-6----||
|-------6--------------------------------------6-----7------7-7-7-7----||
|----7--------------------------------------------------7---5-7-5-7----||
|-------------------------------------------------------------5---5----||

   PM
|--7-7-7--------------------------------------------------------------||
|--7-7-7--------------------------------------------------------------||
|--8-8-8-------------4-4---4-4----------------------------------------||
|--9-9-9-------------4-4^6-4-4^(6)------------------------------------||
|--9-9-9--------------------------------------------------------------||
|--7-7-7--------------------------------------------------------------||
comments
We did not receive enough feedback on this tab! Please rate:
print report bad tab
1 2 3 4 5
I want to post or [tab]
guest
You may want to rate the tab now too:
select rating
Please do not post tabs as comments. Select "correction" instead!