Oops, an error
Loading. Please wait.

Ahora Sin Ti tab

version 3
version 3

Whole song

Interactive

by Reik
37 views 1 this week
no commentswrite comment
1 2 3 4 5
3 more votes to show rating
add to favorites
×
Save as Personal and add changes to this tab that will be seen only by you. Learn more ›
×
You can save this tab as Personal to edit and correct it or add notes. All changes will be seen only by you. Learn more »
launch autoscroll
font size
0
reset
how to read this tab
guitar tuner
edit
Autoscroll
slow
fast
+/-
esc
set tempo
stop
wow sta cancion se scucha rebien, lleva todo lo importate para ser
tokda con una sola guitar hasta la escala xD
disfrutenla


 Intro:
e|------2---------3-------5--------------0------|
B|------3---------3-------5---2/3--2/0---2------|
G|------4---------4-------4--------------2------|
D|----4-4------5--5-------4--------------2------|--------> 3 veces
A|--2---2----5----5----5--5--------------0------|
E|------2--3------3--5----5---------------------|

       G               Bm
estoy aqui recordando estos momentos
        A              G
intentando comprender porque no estas
       G              Bm
y sigo aqui esperando que algun dia
       A            G
esperando que decidas regresar

escala
e|------------7-9/10--|
B|-------7-10---------|
G|---7-9--------------|
D|--9-----------------|--------> aganlo rapido (sta facil)
A|--------------------|
E|--------------------|

coro
 Bm                  G
es el sabor, es el sabor de tus labios
      D                 A
una droga que envenena y me hace enloquecer
      Bm             G                  D                     A
es el olor es el olor de tu cabello un aroma primavera permanece en mi piel


arpegios

e|------------------------0-----------------------|
B|------3--5--3---------3---3---------3--5--3-----|
G|----4---------4-----2-------2-----4---------4---|
D|------------------------------------------------|sigue abajo
A|------------------------------------------------|
E|--3------3------3-2-----2-----2-3------3------3-|


e|---------0------------0--------------0-----------------------|
B|-------3---3--------3---3----------3---3---------3--5--3-----|
G|-----2-------2----2-------2------2-------2-----4---------4---|
D|--0------0---------------------------------------------------|
A|----------------4-----4--------------------------------------|
E|-------------------------------2-----2-----2-3------3------3-|


e|---------0-------------0--|
B|-------3---3---------3-3--|
G|-----2-------2-----2------|
D|--0------0----------------|
A|-----------------0--------|
E|--------------------------|

G           Bm
estoy aqui plasmando estos versos
     A                          G             G
desahogando el sentimiento de mi amor y me voy de aqui,
  Bm                      A              G
comenzando otra vida una vida muy vacia ya sin ti

escala
e|------------7-9/10--|
B|-------7-10---------|
G|---7-9--------------|
D|--9-----------------|
A|--------------------|
E|--------------------|

   Bm                  G
es el sabor, es el sabor de tus labios
      D                 A
una droga que envenena y me hace enloquecer
      Bm             G                  D                     A
es el olor es el olor de tu cabello un aroma primavera permanece en mi piel

ultimo arpegio
e|---------------------------------------------------------5--|
B|------3-----3------3------3------3-----3------3------3---5--|
G|----2-2---4-4----2-2----2-2----2-2---4-4----2-2----2-2---7--|
D|---------------0------4-------------------0------4-------7--|
A|---------------------------------------------------------5--|
E|--2------3-------------------2------3--------------------5--|

cualquier duda a mi mail: diego3_1416@
Suggest correction
Creating personal tab
Creating personal tab
You can edit any tab online and save it as your Personal.

You can edit, replace or remove any tab part or add personal notes – all changes will be seen only by you.

Personal tabs can be accessed anytime from any device, even offline.
Learn more »
Give kudos to tab author, rate the tab!
1 2 3 4 5
comments
print report bad tab
guest
Wanna post a correction for this tab? Suggest correction