Oops, an error
Loading. Please wait.

Creo En Ti Tab

version 1
version 1

Whole song

Interactive

by Reik
44,991 views 51 this week
no commentswrite comment
1 2 3 4 5
x 5
add to favorites
launch autoscroll
font size
0
reset
how to read this tab
guitar tuner
Autoscroll
slow
fast
+/-
esc
set tempo
stop
Help us to improve Ultimate-Guitar.com Take our survey!
×
Author
[Intro] (x3)

e|------------------------------------------------------------------|
B|-------------------------------------------1-----1---------1----1-|
G|-------7------7-----------7------7----1-----3---------1-----3-----|
D|-8-------8------------------8------------3-----3---------3----3---|
A|-----8------8----------8-------8----------------------------------|
E|-6-----------------6------------------1--------------1------------|

e|-------------------------------------------------------------------|
B|-------------------------------------------------------------------|
G|-------5------5-----------5------5-------------0---0-------0--0----|
D|-6-------6------------------6--------------------1-----------1-----|
A|-----6------6----------6-------6-----------1------------1----------|
E|-4-----------------4-----------------------------------------------|

  piel con piel..                        el corazon..
e|-------------------------------------------------------------------|
B|------4------4-----------------------------------------------------|
G|-5------5----------------5------5----------7------7-------6-----6--|
D|----5------5------6--------6---------8-------8--------------8------|
A|-3--------------------6-------6---------8------8-------8------8----|
E|------------------4------------------6---------------6-------------|

  Me haces bien                            Enciendes Luces
e|-------------------------------------------------------------------|
B|-------------------------------------------------------------------|
G|--------8--------8----------5------5---------7------7----7--8--10--|
D|-10-------10---------6---------6-------8--------8------------------|
A|-----10------10----------6-------6--------8-------8----------------|
E|-8-------------------4-----------------6-----------------6--8--10--|

  creo en ti...                         y en este..
e|-------------------------------------------1-----1-------1-----1--|
B|-------------------------------------3-------3-------------3------|
G|-------12------12-------12------12------3------3------3-----3-----|
D|-11------13----------------13--------0--------------0-------------|
A|-----13-----13--------13------13----------------------------------|
E|-11-----------------11--------------------------------------------|

  Que me ha vuelto...               que detuvo mi caida libre
e|-------------------------------------------------------------------|
B|--------4----4-------4--3--3---------------------------------------|
G|--5------5----------------------------5----5------7----------------|
D|-----5----5--------5-------------6-----6------6----8---------------|
A|--3-------------3-------------------6----6------8----8-------------|
E|------------------------------4--4------------8--------------------|

  Creo En ti...                         Y en mi dolor
e|-------------------------------------------1-----1-------1-----1--|
B|-------------------------------------3-------3-------------3------|
G|-------12------12-------12------12------3------3------3-----3-----|
D|-11------13----------------13--------0--------------0-------------|
A|-----13-----13--------13------13----------------------------------|
E|-11-----------------11--------------------------------------------|

     Se quedo  kilometros
e|------------------------1------1---------------------------------|
B|--------3-----3----3-------3-----------4----4--------------------|
G|--4-------4-----------1------1----5------5-----------5------5----|
D|-----4------4------0-----------------5-----5----6------6---------|
A|--2-------------------------------3----------------6-----8-------|
E|------------------------------------------------8----------------|


    Hoy...                        Porfin estan en paz
e|-------------------------------------------------------------------|
B|--------1-----1-------1-----1--------------------------------------|
G|--2-------2-------------2------------5-----5-------5------5--------|
D|-----3------3-------3-----3-----6------6-------6-----8-------------|
A|--0---------------0----------------6-----6--------8-----8----------|
E|---------------------------------4-------------8-------------------|


e|-----------------------------------------------------|
B|-----------------------------------------------------|
G|-------8----8--------8---8--------8---8-----8---8----|
D|----5----5-----6--8----8------6-----6---8-----8------| 
A|-6--------------------------8---8-----------8--------|
E|-----------------------------------------------------|(x2)

la segunda mitad de la cancion es igual y la cancion termina con esto

e|-----|
B|---4-|
G|---3-|
D|---5-|
A|---6-|
E|-----|
Suggest correction
comments
print report bad tab
guest
You may want to rate the tab now too:
select rating
Wanna post a correction for this tab? Suggest correction