Oops, an error
Loading. Please wait.

Creo En Ti tab

version 2
version 2

Whole song

Interactive

by Reik
341 views 9 this week
no commentswrite comment
1 2 3 4 5
3 more votes to show rating
add to favorites
×
Save as Personal and add changes to this tab that will be seen only by you. Learn more ›
×
You can save this tab as Personal to edit and correct it or add notes. All changes will be seen only by you. Learn more »
launch autoscroll
font size
0
reset
how to read this tab
guitar tuner
edit
Autoscroll
slow
fast
+/-
esc
set tempo
stop
6/Junio/2013/Sábado/11:49am
Modificando a todos

La canción esta en Eb medio tono abajo
Afinador: 


      !Acordes Originales¡
      ((Click en Calidad))


Ritmo en versos  | Ritmo en pre-coro y coro
1|---------------|------------------
2|----------------------0-----0-----
3|-------0-----0----------0---------
4|---------0----------0-----0-------
5|-----0-----0------0---------------
6|---0-----------|------------------

--Versos--
B                     F#m
  Ya no importa cada noche que espere,
A                   E
  cada calle o laberinto que cruce,
B                            F#m
  por que el Cielo ha conspirado a mi favor
A                       E
  y a un segundo de rendirme te encontré...

--Pre-coro--
(): Es opcional, puedes pisar o no el número de traste;
    pero la cuerda entre paréntesis no debe sonar

   C#m   A  B7sus4   B7  Amaj7  Bmaj7
1|-(4)--(2)---(2)---(2)---(4)----(6)----
2|--5----5-----5-----4-----5------7-----
3|--6----2-----2-----2-----4------6-----
4|--6----2-----4-----4-----7------9-----
5|--4----0-----2-----2-----4------6-----
6|--------------------------------------

C#m        A      B7sus4         B7
Piel con piel el corazón se me desarma,
C#m        A      B7sus4      B7    Amaj7 Bmaj7
me haces bien enciendes luces en mi al    ma...

--Coro--
    E  Bmaj7
1|-(7)--(6)-----
2|--9----7------
3|--9----8------
4|--9----9------
5|--7----6------
6|--------------
E
Creo en ti
      Bmaj7
y en este amor
       C#m                  B
que me vuelve indestructible
      A         B
que detuvo mi caída libre...

    E  Bmaj7   B7/C   D7/Eb   C#m/B   C#7sus4/Bb
1|-(7)--(6)-----x-------x------(4)--------x--------
2|--9----7------4-------7-------5---------7--------
3|--9----8------2-------5-------4---------4--------
4|--9----9------4-------7-------6---------6--------
5|--7----6------3-------6-------x---------x--------
6|------------------------------7---------6--------
E
Creo en ti
   Bmaj7
y mi dolor
B7/C          D7/Eb      C#m
se quedó a kilómetros atrás
C#m/B     C#7sus4/Bb
mis   fantasmas      hoy
    A      B       E --] con cejilla 4to traste
por fin están en paz...

Acorde | Intro
    E  |  E
1|-(4)-|--------------|-----------|-------------|--------------------
2|--5--|------5-----5------5----5-------5----5-------5------5--------
3|--4--|--------4--------4---4-------4---4---------4------4----------
4|--6--|----6-----6----7------7----4-------4-----6------------------- x2
5|--7--|------------------------------------------------6------------
6|--0--|--0-----------|-----------|-------------|--------------------

--Versos--
B                     F#m
  El pasado es un mal sueño que acabo,
A                         E
  un incendio que en tus brazos se apago,
B                     F#m
  cuando estaba medio pasó de caer
A                         E
  mis silencios se encontraron con tu voz...

--Pre-coro--

C#m    A     B7sus4          B7
Te seguí y reescribiste mi futuro
C#m   A    B7sus4    B7    Amaj7 Bmaj7
es aquí mi único  lugar segu     ro

--Coro--
    E  Bmaj7
1|-(7)--(6)-----
2|--9----7------
3|--9----8------
4|--9----9------
5|--7----6------
6|--------------
E
Creo en ti
      Bmaj7
y en este amor
       C#m                  B
que me vuelve indestructible
      A         B
que detuvo mi caída libre...
    E  Bmaj7   B7/C   D7/Eb   C#m/B   C#7sus4/Bb
1|-(7)--(6)-----x-------x------(4)--------x--------
2|--9----7------4-------7-------5---------7--------
3|--9----8------2-------5-------4---------4--------
4|--9----9------4-------7-------6---------6--------
5|--7----6------3-------6-------x---------x--------
6|------------------------------7---------6--------
E
Creo en ti
   Bmaj7
y mi dolor
B7/C          D7/Eb      C#m
se quedó a kilómetros atrás
C#m/B     C#7sus4/Bb
mis   fantasmas      hoy
    A      B       E --] con cejilla 4to traste
por fin están en paz...

Acorde | Final(Cambiado)
    E  |  E
1|-(4)-|--------------|-----------|-------------|--------------------
2|--5--|------5-----5------5----5-------5----5-------5---------------
3|--4--|--------4--------4---4-------4---4---------4--------4--------
4|--6--|----6-----6----7------7----4-------4-----6--------4----------
5|--7--|------------------------------------------------6------------
6|--0--|--0-----------|-----------|-------------|--------------------

    E  |  E                                                     E
1|-(4)-|--------------|-----------|-------------|---------------x----
2|--5--|------5-----5------5----5-------5----5-------5----------5----
3|--4--|--------4--------4---4-------4---4---------4--------4---4----
4|--6--|----6-----6----7------7----4-------4-----6--------4-----6----
5|--7--|------------------------------------------------6-------7----
6|--0--|--0-----------|-----------|-------------|---------------0----

Si tienes duda agregame

Cchecuu
Saludos desde Chiapas-México
Suggest correction
Creating personal tab
Creating personal tab
You can edit any tab online and save it as your Personal.

You can edit, replace or remove any tab part or add personal notes – all changes will be seen only by you.

Personal tabs can be accessed anytime from any device, even offline.
Learn more »
Give kudos to tab author, rate the tab!
1 2 3 4 5
comments
print report bad tab
guest
Wanna post a correction for this tab? Suggest correction