Oops, an error
Loading. Please wait.

Creo En Ti tab

version 3
version 3

Whole song

Interactive

by Reik
300 views 1 this week
no commentswrite comment
1 2 3 4 5
3 more votes to show rating
add to favorites
×
Save as Personal and add changes to this tab that will be seen only by you. Learn more ›
×
You can save this tab as Personal to edit and correct it or add notes. All changes will be seen only by you. Learn more »
launch autoscroll
font size
0
reset
how to read this tab
guitar tuner
edit
Autoscroll
slow
fast
+/-
esc
set tempo
stop
 Holaaa¡¡¡¡ , de nuevo , esta es la correccion a mi tablatura anterior.
  La hice en otra cuenta ya que se me olvida la clave de la otra y el nombre XD

Bueno la Tab. es casi igual solo que le cambie algunas cosas
que el guitarrista acustico de Reik(Julio Ramirez)
las dijo en el tutorial de la cancion ;), no me equivoque en muchas
 cosas, son solo detalles pero de todas formas se las mando de nuevo ;)

  Las pisadas see las dejo alla Abajo ;)

 La cancion es con la guitarra afinada medio tono mas abajo   , asi:


1. Cuerda: eb
2. Cuerda: Bb
3. Cuerda: Gb
4. Cuerda: Db
5. Cuerda: Ab
6. Cuerda: Eb.


 Bueno aqui esta:


    Intro:

    1.--------------------------------------------------
    2.--------------------------------------------------
    3.----------8--------8---------------8--------8-----
    4.-------------9------------------------9-----------
    5.-------9--------9---------------9--------9--------
    6.----7------------------------7--------------------


    1.--------------------------------------------------
    2.--------------------------------------------------
    3.----------2--------2----------------2--------2----
    4.-------------4-------------------------4----------
    5.-------4--------4----------------4--------4-------
    6.----2-------------------------2-------------------


    1.--------------------------------------------------
    2.--------------------------------------------------
    3.----------6--------6---------------6--------6-----
    4.-------------7------------------------7-----------
    5.-------7--------7---------------7--------7--------
    6.----5------------------------5--------------------


    3.--------------------------------------------------
    2.--------------------------------------------------
    3.----------1--------1---------------1--------1-----
    4.-------------2------------------------2-----------
    5.-------2--------2---------------2--------2--------
    6.----0------------------------0--------------------


    Verso:

    1.--------------------------------------------------
    2.--------------------------------------------------
    3.----------8--------8---------------8--------8-----
    4.-------------9------------------------9-----------
    5.-------9--------9---------------9--------9--------
    6.----7------------------------7--------------------

               Ya no importa cada


    1.--------------------------------------------------
    2.--------------------------------------------------
    3.----------2--------2----------------2--------2----
    4.-------------4-------------------------4----------
    5.-------4--------4----------------4--------4-------
    6.----2-------------------------2-------------------

                Noche que esperé


    1.--------------------------------------------------
    2.--------------------------------------------------
    3.----------6--------6---------------6--------6-----
    4.-------------7------------------------7-----------
    5.-------7--------7---------------7--------7--------
    6.----5------------------------5--------------------

               Cada calle o labe...


    3.--------------------------------------------------
    2.--------------------------------------------------
    3.----------1--------1---------------1--------1-----
    4.-------------2------------------------2-----------
    5.-------2--------2---------------2--------2--------
    6.----0------------------------0--------------------

               ....rinto que crucé


    1.--------------------------------------------------
    2.--------------------------------------------------
    3.----------8--------8---------------8--------8-----
    4.-------------9------------------------9-----------
    5.-------9--------9---------------9--------9--------
    6.----7------------------------7--------------------

               Porque el cielo ha conspi...


    1.--------------------------------------------------
    2.--------------------------------------------------
    3.----------2--------2----------------2--------2----
    4.-------------4-------------------------4----------
    5.-------4--------4----------------4--------4-------
    6.----2-------------------------2-------------------

                rado a mi favor


    1.--------------------------------------------------
    2.--------------------------------------------------
    3.----------6--------6---------------6--------6-----
    4.-------------7------------------------7-----------
    5.-------7--------7---------------7--------7--------
    6.----5------------------------5--------------------

                  Y a un segundo de


    3.--------------------------------------------------
    2.--------------------------------------------------
    3.----------1--------1---------------1--------1-----
    4.-------------2------------------------2-----------
    5.-------2--------2---------------2--------2--------
    6.----0------------------------0--------------------

                 rendirme te enocontré


    Pre-coro:

    1.--------------------------------------------------
    2.----------5--------5---------------5--------5-----
    3.-------------6------------------------2-----------
    4.-------6--------6---------------2--------2--------
    5.----4------------------------0--------------------
    6.--------------------------------------------------

                Piel   con    piel


    1.--------------------------------------------------
    2.----------5--------5---------------4--------4-----
    3.-------------2------------------------2-----------
    4.-------4--------4---------------4--------4--------
    5.----2------------------------2--------------------
    6.--------------------------------------------------

             El  corazón  se  me  desarma


    1.--------------------------------------------------
    2.----------5--------5---------------5--------5-----
    3.-------------6------------------------2-----------
    4.-------6--------6---------------2--------2--------
    5.----4------------------------0--------------------
    6.--------------------------------------------------

                    Me haces bien


    1.--------------------------------------------------
    2.----------5--------5---------4----5---7-----------
    3.-------------2------------------------------------
    4.-------4--------4------------4----7---9-----------
    5.----2------------------------2--------------------
    6.--------------------------------------------------

           Enciendes  luces    en   mi   alma


    Coro:

    1.--------------------------------------------------
    2.----------9--------9---------------9--------9-----
    3.-------------9------------------------9-----------
    4.-------9--------9---------------9--------9--------
    5.----7------------------------7--------------------
    6.--------------------------------------------------

                    Creo en ti


    1.--------------------------------------------------
    2.----------7--------7---------------7--------7-----
    3.-------------8------------------------8-----------
    4.-------9--------9---------------9--------9--------
    5.----6------------------------6--------------------
    6.--------------------------------------------------

                    Y en este amor


    1.--------------------------------------------------
    2.----------5--------5---------------5--4-----4-----
    3.-------------6------------------------------------
    4.-------6--------6---------------6--------4--------
    5.----4------------------------4--------2-----------
    6.--------------------------------------------------

                Que me vuelve indestructible


    1.--------------------------------------------------
    2.----------2--------2---------------4--------4-----
    3.-------------2------------------------4-----------
    4.-------2--------2---------------4--------4--------
    5.----0------------------------2--------------------
    6.--------------------------------------------------

                 Que destuvo mi caída libre


    1.--------------------------------------------------
    2.----------9--------9---------------9--------9-----
    3.-------------9------------------------9-----------
    4.-------9--------9---------------9--------9--------
    5.----7------------------------7--------------------
    6.--------------------------------------------------

                    Creo en ti


    1.--------------------------------------------------
    2.----------7--------7---------------7--------7-----
    3.-------------8------------------------8-----------
    4.-------9--------9---------------9--------9--------
    5.----6------------------------6--------------------
    6.--------------------------------------------------

                      Y mi dolor


    1.--------------------------------------------------
    2.----------4--------4---------------7--------7-----
    3.-------------2------------------------5-----------
    4.-------4--------4---------------7--------7--------
    5.----3------------------------6--------------------
    6.--------------------------------------------------

                    Se quedó kilometros atrás


    1.--------------------------------------------------
    2.----------5--------5---------------5--------5-----
    3.-------------6------------------------4-----------
    4.-------6--------6---------------6--------6--------
    5.----4---------------------------------------------
    6.-----------------------------7--------------------

                          Mis....


    1.--------------------------------------------------
    2.----------7--------7---------------7--------7-----
    3.-------------6------------------------6-----------
    4.-------4--------4---------------4--------4--------
    5.--------------------------------------------------
    6.----6------------------------6--------------------

                    Fantasmas hoy


    1.--------------------------------------------------
    2.----------2--------2---------------4--------4-----
    3.-------------2------------------------4-----------
    4.-------2--------2---------------4--------4--------
    5.----0------------------------2--------------------
    6.--------------------------------------------------

                    Porfin   estan    en    paz


    1.--------------------------------------------------
    2.----------5--------5---------------5--------5-----
    3.-------------4------------------4-----4-----------
    4.-------6--------6------------7-----------7--------
    5.--------------------------------------------------
    6.----0---------------------------------------------


    1.--------------------------------------------------
    2.----------5--------5---------------5--------5-----
    3.-------4-----4------------------4-----------------
    4.----4-----------4------------6-----------4--------
    5.--------------------------------------6-----------
    6.--------------------------------------------------


    1.--------------------------------------------------
    2.----------5--------5---------------5--------5-----
    3.-------------4------------------4-----4-----------
    4.-------6--------6------------7-----------7--------
    5.--------------------------------------------------
    6.----0---------------------------------------------


    1.--------------------------------------------------
    2.----------5--------5---------------5--------------
    3.-------4-----4------------------4-----------4-----
    4.----4-----------4------------6-----------4--------
    5.--------------------------------------6-----------
    6.--------------------------------------------------


     El resto de la cancion es igualita  , y el final es asi:


    1.--------------------------------------------------
    2.----------5--------5---------------5--------5-----
    3.-------------4------------------4-----4-----------
    4.-------6--------6------------7-----------7--------
    5.--------------------------------------------------
    6.----0---------------------------------------------


    1.--------------------------------------------------
    2.----------5--------5---------------5--------5-----
    3.-------4-----4------------------4-----------------
    4.----4-----------4------------6-----------4--------
    5.--------------------------------------6-----------
    6.--------------------------------------------------


    1.--------------------------------------------------
    2.----------5--------5---------------5--------5-----
    3.-------------4------------------4-----4-----------
    4.-------6--------6------------7-----------7--------
    5.--------------------------------------------------
    6.----0---------------------------------------------


    1.-----------------------------------------------------
    2.----------5--------5---------------5--------------5--
    3.-------4-----4------------------4-----------4----4---
    4.----4-----------4------------6-----------4------6----
    5.--------------------------------------6--------7-----
    6.----------------------------------------------0------


   Ok¡¡ antes de irme pondre las pisadas para la cancionya que algunos
me lo preguntaro la vez anterior
   Aqui estan:

Intro, y Versos:

    1.---7---|    1.---2---|    1.---5---|    1.---0---|
    2.---7---|    2.---2---|    2.---5---|    2.---0---|
    3.---8---|    3.---2---|    3.---6---|    3.---1---|
    4.---9---|    4.---4---|    4.---7---|    4.---2---|
    5.---9---|    5.---4---|    5.---7---|    5.---2---|
    6.---7---|    6.---2---|    6.---5---|    6.---0---|


Per-Coro:

    1.---4---|    1.---2---|    1.---2---|    1.---2---|
    2.---5---|    2.---5---|    2.---5---|    2.---4---|
    3.---6---|    3.---2---|    3.---2---|    3.---2---|
    4.---6---|    4.---2---|    4.---4---|    4.---4---|
    5.---4---|    5.---0---|    5.---2---|    5.---2---|
    6.---x---|    6.---x---|    6.---x---|    6.---x---|


    1.---4---|    1.---6---|
    2.---5---|    2.---7---|
    3.---4---|    3.---6---|
    4.---7---|    4.---9---|
    5.---4---|    5.---6---|
    6.---x---|    6.---x---|


Coro:

    1.---7---|    1.---6---|    1.---4---|    1.---0---|
    2.---9---|    2.---7---|    2.---5---|    2.---2---|
    3.---9---|    3.---8---|    3.---6---|    3.---2---|
    4.---9---|    4.---9---|    4.---6---|    4.---2---|
    5.---7---|    5.---6---|    5.---4---|    5.---0---|
    6.---x---|    6.---x---|    6.---x---|    6.---x---|


    1.---2---|    1.---x---|    1.---x---|    1.---4---|
    2.---4---|    2.---4---|    2.---7---|    2.---5---|
    3.---4---|    3.---2---|    3.---5---|    3.---4---|
    4.---4---|    4.---4---|    4.---7---|    4.---6---|
    5.---2---|    5.---3---|    5.---6---|    5.---x---|
    6.---x---|    6.---x---|    6.---x---|    6.---7---|


    1.---x---|    1.---x---|    1.---x---|    1.---x---|
    2.---7---|    2.---5---|    2.---5---|    2.---5---|
    3.---6---|    3.---4---|    3.---4---|    3.---4---|
    4.---4---|    4.---6---|    4.---7---|    4.---4---|
    5.---x---|    5.---7---|    5.---x---|    5.---x---|
    6.---6---|    6.---0---|    6.---x---|    6.---x---|


    1.---x---|    1.---x---|
    2.---5---|    2.---5---|
    3.---4---|    3.---4---|
    4.---6---|    4.---4---|
    5.---x---|    5.---6---|
    6.---x---|    6.---x---|

    Bueno, ojale que les guste  esta tab. esta 100% buenna  xD


   Pronto subire el video a Youtube ok ;)  Nose cuando pero lo haré,

      solo busquen  AndresBizarro(ese es el nombre de mi cuenta)

   Tambien busquen en Youtube el tutorial de creo en ti , solo pongan
Reik (canal oficial) y en los videos buscan el tutorial,

si bajan mas en los video encontraran las demas tutorias ;)

 Bueno adios ,  Cualquier cosa me escriben a : redranger_21@

            
            
Suggest correction
Creating personal tab
Creating personal tab
You can edit any tab online and save it as your Personal.

You can edit, replace or remove any tab part or add personal notes – all changes will be seen only by you.

Personal tabs can be accessed anytime from any device, even offline.
Learn more »
Give kudos to tab author, rate the tab!
1 2 3 4 5
comments
print report bad tab
guest
Wanna post a correction for this tab? Suggest correction