Oops, an error
Loading. Please wait.

Cuando Estas Conmigo Tab

by Reik
7,587 views 6 this week
3 commentsread comments
1 2 3 4 5
x 8
add to favorites
launch autoscroll
font size
0
reset
how to read this tab
guitar tuner
Autoscroll
slow
fast
+/-
esc
set tempo
stop
Help us to improve Ultimate-Guitar.com Take our survey!
×
Author
Difficulty
intermediate
Cuando Estas Conmigo - Reik

Am/f - x x 3 2 1 0
Am/d - x x 0 2 1 0

Todos los rasgueos son hacia arriba (con la excepción del coro)

                          Puntea hacia arriba con 2 dedos
----0---0----0---0------0---3*---0---0-|
----1---1----1---1------1---3*---1---1-|
0---0---0----2---2------2--------0---0-|
----2---2--3-3-3-3--2-0-0--------2---2-|
--3---3-------------------5----3---3---|
---------------------------------------|
C         Am/f      Am/d G

C                Am/f     Am/d  G      C
Cuando estas conmigo, se llena mi corazón
                 Am/f   Am/d          G        C
Tiene sentido la vida, y el mundo es una ilusión
                 Am/f     Am/d   G      C
Cuando estas conmigo, la noche tiene color
                 Am/f      Am/d    G        C
Y un beso es suficiente, para entender el amor

F         C                    F
Y al abrazarte y sentir que me amas
             c                    F
salen las estrellas aún si es de día
              C                F
Y todos esos días llenos de vacío
       Am/f   G                     C
Se volvieron polvo porque estas conmigo

am/f, am/d, G, C

C                Am/f     Am/d  G      C
Cuando estas conmigo, es bello mi alrrededor
             Am/f   Am/d   G        C
Y una sorisa tuya, derrite mi corazón
                 Am/f      Am/d   G          C
Cuando estas conmigo, el tiempo pierde el valor
               Am/f      Am/d  G            C
Y una carisia tuya, me hace volar hasta el sol

F         C                    F
Y al abrazarte y sentir que me amas
             c                    F
salen las estrellas aún si es de día
              C                F
Y todos esos días llenos de vacío
       Am/f   G
Se volvieron polvo porque estas conmigo

Riff para gtr
--------------------------------------------------------------------------|
-----------------------------------------------------------------3-2------|
-------------------------2----------------------------------2-2-0---------|
-1-1/5-----------3h5-3/1---1h3-1---1-2/3------------6--4/5-3-1-1------1-1-|
------3-5-3-5---------------------------3-5-5/6-5-3--3--------------------|

---------------------------------------------------------------------------|
---------------------------------------------------------------------------|
-0--------0--------------------------------------------------12------------|
---------3-1h3/5/3-1------------------8/10-10-----------13-10--------------|
--1/3/1-0--------------8/10/8-8-/12-------8--12-13-10/12-------10-8/10-6/8-|

5ta --------------|
4ta -5-------7-5--|
3ra --5-7-7-5-----|
2da -----5--------|
1ra --------------|

F         C                    F
Y al abrazarte y sentir que me amas
             c                    F
salen las estrellas aún si es de día
              C                F
Y todos esos días llenos de vacío
       Am/f   G                       C
Se volvieron polvo porque estas conmigo

                 Am/f   Am/d          G        C
Tiene sentido la vida, y el mundo es una ilusión
                 Am/f     Am/d   G      C
Cuando estas conmigo,            uuuuuuuu
Suggest correction
comments
print report bad tab
3 comments total.
0 reply
tonyparati 50 Nov 27, 2007 03:06 PM

que son rasqueos

0 reply
tonyparati 50 Nov 27, 2007 03:06 PM

?

0 reply
Llewoh 56 Jul 29, 2012 12:43 PM

Es mejor asi:

----0---0---0---0-----0---3---0---0-|
----1---1---1---1-----1---3---1---1-|
0---0---0---2---2-----2-------0---0-|
------2---3---3---2-0---0-------2---|
--3-------------------------3-------|
------------------------------------|

guest
You may want to rate the tab now too:
select rating
Wanna post a correction for this tab? Suggest correction