Oops, an error
Loading. Please wait.

De Que Sirve Chords

by Reik
6,835 views 3 this week
4 commentsread comments
1 2 3 4 5
x 9
add to favorites
launch autoscroll
font size
0
reset
transpose
0
reset
display chords
guitar tuner
Autoscroll
slow
fast
+/-
esc
set tempo
stop
Help us to improve Ultimate-Guitar.com Take our survey!
×
Author
Difficulty
Capo
intermediate
1st fret
De Que Sirve - Reik

Capo 1 

Am Em Am Em

   Am                                        Em
De que sirve lo que me rodea aunque tenga todo
Siento un vacío sin ti
   Am                                        Em
De que me sirve el aire que respiro aunque sobrevivo
Siento que me ahogo sin ti
E                F       C           G
Hoy solo tengo tiempo y mi soledad para recordar
E                F       C           G
Solo me quedan fuerzas Para soñar que tú volverás
                 F            C         G
Por que todo me falta No me alcanzan las ganas de vivir
                 F            C         G
Aunque todo lo intento yo no entiendo Por que no estas aquí
                 F            C         G
Aunque nada es eterno o perfecto tú lo eres para mi
        F              G
Te necesito por que sin ti no sé vivir
--- Am Em ---
   Am                                        Em
De que sirve ver un nuevo día Si no hay alegría
Solo quedan ganas de huir
   Am                                        Em
De que me sirve el reflejo de la luna tener una fortuna
Si el amor se ha ido de aquí
E                F       C           G
Hoy solo tengo tiempo y mi soledad para recordar
E                F       C           G
Solo me quedan fuerzas Para soñar que tú volverás
                 F            C         G
Por que todo me falta No me alcanzan las ganas de vivir
                 F            C         G
Aunque todo lo intento yo no entiendo Por que no estas aquí
                 F            C         G
Aunque nada es eterno o perfecto tú lo eres para mí
        F              G
Te necesito por que sin ti no sé vivir
--- Am Em Am Em ---
Solo
e|-------13-13-13-11--13-11----11b-------------------------|
B|------------------13-------11--11-9-11-------------------|
G|-----10------------------10----------------15-15-15------|
D|-8/11---------------------------------13-15--------15-13-|
A|---------------------------------------------------------|
E|---------------------------------------------------------|

e|--------13-13-13-13-13-11------|
B|-----11------------------14-13-|
G|--10---------------------------|
D|-------------------------------|
A|-------------------------------|
E|-------------------------------|

E                F       C           G
Hoy solo tengo tiempo y mi soledad para recordar
                 F            C         G
Por que todo me falta No me alcanzan las ganas de vivir
                 F            C         G
Aunque todo lo intento yo no entiendo Por que no estas aquí
                 F            C         G
Aunque nada es eterno o perfecto tú lo eres para mí
        F              G
Te necesito por que sin ti no sé vivir
        F              G
Te necesito por que sin ti no sé vivir
        F              G             Am
Te necesito por que sin ti no sé vivir


Suggest correction
comments
print report bad tab
4 comments total. Showing first comments.
0 reply
Gabysguitar 231 Oct 11, 2007 02:41 PM

great tab,cool great ear!!!!!!!!

0 reply
yamaha182 302 Nov 21, 2007 10:19 PM

Solo
e|-------13-13-13-11--13-11-----11b------------------------------13-13-13-13-13-11-----|
B|------------------13--
------11---11-9-11---------------------11-----------------14-13|
G|-----10-------------------10-----------------15-15-1
5-----10-------------------------|
D|-8/11-----------------------------------13-15--------15-13------------------------
---|
A|-------------------------------------------------------------------------------------|
E|----------------------
---------------------------------------------------------------|

0 reply
yamaha182 302 Nov 21, 2007 10:21 PM

Solo
e|------
13-13-13-11--13-11----11b----------------------------13-13-13-13-13-11-----|
B|------------------13-------11--11-9-11--
------------------11-----------------14-13|
G|-----10------------------10----------------15-15-15-----10---------------
---------|
D|-8/11---------------------------------13-15--------15-13--------------------------|
A|-------------------
---------------------------------------------------------------|
E|----------------------------------------------------
------------------------------|

guest
You may want to rate the tab now too:
select rating
Wanna post a correction for this tab? Suggest correction